Wardrop Graham - Trickys Magic Rag Chords & Tabs

 

Trickys Magic Rag Chords & Tabs

Wardrop Graham Chords & Tabs

Version: 1 Type: Tab 0 ratings
1 star 2 stars 3 stars 4 stars 5 stars
comments

Trickys Magic Rag Tab

#----------------------------------PLEASE NOTE---------------------------------#
#This file is the author's own work and represents their interpretation of the #
#song. You may only use this file for private study, scholarship, or research. #
#------------------------------------------------------------------------------##
     Tricky's Magic Rag  - Graham Wardrop
     ~~~~~~~~~~~~~~~~~~

     Transcribed by John Kean (keanj@agresearch.cri.nz).


                                                                              
     ||-------7--7-----7--6--5--4--|--------3--2--------2-----|
     ||-------9--9-----9--8--7--5--|--------4--3--------3-----|
     ||-*--------------------------|--------------------------|
     ||-*--------------------------|-----0-----------0-----0--|
     ||-------------7--------------|--------------------------|
     ||----0-----------------------|--0-----------4-----------|
                                                                              
                                                                              
                                                                              
                                                                              
     |--------0--2--3--2--0-----|-------0h2-0--------0-2-3--|  
     |--------2-----2-----------|--1-----------------1------|  
     |-----2--------2--------2--|--0--------------0---------|  
     |--------------------------|---------------------------|  
     |--0-----------------------|--3-----------3------------|  
     |--------------0-----------|---------------------------|  
                                                                              
                                                                              
                                                        To Coda                     
                                                           $                   
     |--4--0--------------------|-----4--0-----3-----2--0--|                     
     |--0-----0---------5-------|-----2--------0-----------|                     
     |--------1---------6-------|-----2--------2-----------|                     
     |------------------6----2--|--------------------------|                     
     |-----------2-3-4----------|-----------2--------------|                     
     |--0-----------------------|--2-----------------------|                     

[ Tab from: http://www.guitartabs.cc/tabs/w/wardrop_graham/trickys_magic_rag_tab.html ]
                                 ...........................
                                  1,5.                     |
                                                                              
     |-----0--------------------|-----0-------------------||
     |--------------------------|-----------------0-------||
     |--------4-----3-----2--0--|-h1--------------2-----*-||
     |--------------------------|-----------------1-----*-||
     |--------------------------|--------0--1--2-----2----||
     |--0-----4-----3-----2-----|--0----------------------||
                                                                              
                                                                              
     .....................................................->
      2,6.                                                                    
                                                                              
     |-----0--------------------|-----0--2--0-----0--2--0--|                  
     |--------4--3--------3--0--|--2-----------2-----------|                  
     |-h1-----------------4-----|--------------------------|
     |-----------------0--------|--------2-----------2-----|                  
     |--------------------------|--0-----------------------|                  
     |--0-----------4-----------|--------------0-----------|                  
                                                                              
                                                                              

                                                                              
     |-----0--2--0-----0--2--0--|-----0--2--0-----0--2--0--|                  
     |--1-----------1-----------|--0-----------------------|                  
     |--------------------------|--------------------------|                  
     |--------2-----------2-----|--------2-----------2-----|                  
     |--3-----------0-----------|--------------------------|                  
     |--------------------------|--0-----------0-----------|                  
                                                                              
                                                                              
                                                                              
                                                          
     |--------------------------|-----0--2--0-----0--2--0--|                  
     |--------4--3-----------0--|-h2-----------2-----------|                  
     |--------------------------|--------------------------|                  
     |-----2--------------------|--------2-----------2-----|                  
     |--------------------------|--0-----------------------|                  
     |--0-----------2-----4-----|--------------0-----------|                  
                                                                              
                                                                              
                                                                              
        
     |-----0--2--0-----0--2--0--|------0------------------|                        
     |--1-----------1-----------|------0-----------5------|                        
     |--------------------------|------1-----------6------|                        
     |--------2-----------2-----|------------------6------|                        
     |--3-----------0-----------|----------3---4----------|                        
     |--------------------------|--0-------------------3--|                        
                                                                              
                                                                              
     
Comments