War - Spill The Wine Chords & Tabs

 

Spill The Wine Chords & Tabs

War Chords & Tabs

Version: 1 Type: Tab 0 ratings
1 star 2 stars 3 stars 4 stars 5 stars
comments

Spill The Wine Tab

   
I decided to tab this out today

Spill the wine -Organ shit

Most of song
-
-
---3----3---3----3-|
-2--2-3---2--2-3---|
-
-

Chorus
F E F E F E F E C


Spill The Wine - Flute Tab

------------------|
-8-11-13-11-13----|
------------------|
------------------|
------------------|
------------------|


----------------------------|
-11-13-16-13-20-20-18-16-13-|
----------------------------|
----------------------------|
----------------------------|
----------------------------|


----------11-18-20-|
-11-13-13----------|
-------------------|
-------------------|
-------------------|
-------------------|


-18-20-22-20-|
-------------|
-------------|
-------------|
-------------|
-------------|

-19-20-15-13-15-13-11-13-|
-------------------------|
-------------------------|
-------------------------|
-------------------------|
-------------------------|

-13/15-11-8-13/15-11-8-|
-----------------------|
-----------------------|
-----------------------|
-----------------------|
-----------------------|

[ Tab from: http://www.guitartabs.cc/tabs/w/war/spill_the_wine_tab.html ]
-22-20-18-15-13-12-|
-------------------|
-------------------|
-------------------|
-------------------|
-------------------|

-14/15-11-8---10-8-6-8-|
-----------------------|
-----------------------|
-----------------------|
-----------------------|
-----------------------|

Then Chorus

Next Verse

Chorus


Fire (sliding)
-15/19/22\18\15/20-
-------------------|
-------------------|
-------------------|
-------------------|
-------------------|

-13-11-8-11-|
------------|
------------|
------------|
------------|
------------|

-------------------------|
-13-16-20-20-18-16-13/16-|
-------------------------|
-------------------------|
-------------------------|
-------------------------|

Bendy
-----------------------------------|
-----------------------------------|
-11-13-14-14-14-13-11-13---11-11-7-|
-----------------------------------|
-----------------------------------|
-----------------------------------|

chorus


-------------------------|
-13-16-20-20-18-16-13/16-|
-------------------------|
-------------------------|
-------------------------|
-------------------------|

High Free style Fluting
Comments