War - Low Rider Chords & Tabs

 

Low Rider Chords & Tabs

War Chords & Tabs

Version: 3 Type: Tab 0 ratings
1 star 2 stars 3 stars 4 stars 5 stars
comments

Low Rider Tab

Title:     Lowrider
Artist:    War
Tuning:    Standard
Tabbed by: Tom L.


intro
 bass
G|-----------------------------------|-----------------------------------|
D|-------------------0--0--3-5-3-0---|-------------------0--0--3-5-3-0---|
A|----------3-3----------------------|----------3-3----------------------|
E|------2-3--------------------------|------2-3--------------------------|

 bass
G|-----------------------------------|-----------------------------------|
D|-------------------0--0--3-5-3-0---|-------------------0--0--3-5-3-0---|
A|----------3-3----------------------|----------3-3----------------------|
E|------2-3--------------------------|------2-3--------------------------|
        All my friends know the low rider
        The low rider is a little higher

  gtr.  (bass keeps playing)
E|--7-7-7-7-7-8-10-10---7-8-7-------7-7-7-7-7-8-10-10---7-8-7---|
B|--------------------8-------8-----------------------8-------8-|
G|--------------------------------------------------------------|
D|--------------------------------------------------------------|
A|--------------------------------------------------------------|
E|--------------------------------------------------------------|

E|--------------------------------------------------------|
B|-----------------------------------------8--------------|
G|--10-10-10-10-10----10-10-10-10-10----10----------------|
D|--------------------------------------------------------|
A|--------------------------------------------------------|
E|--------------------------------------------------------|

 bass
G|-----------------------------------|-----------------------------------|
D|-------------------0--0--3-5-3-0---|-------------------0--0--3-5-3-0---|
A|----------3-3----------------------|----------3-3----------------------|
E|------2-3--------------------------|------2-3--------------------------|
        The low rider drives a little slower
        Low rider, is a real goer

  gtr.  (bass keeps playing)
E|--7-7-7-7-7-8-10-10---7-8-7-------7-7-7-7-7-8-10-10---7-8-7---|
B|--------------------8-------8-----------------------8-------8-|
G|--------------------------------------------------------------|
D|--------------------------------------------------------------|
A|--------------------------------------------------------------|
E|--------------------------------------------------------------|
                               Hey
E|--------------------------------------------------------|
B|-----------------------------------------8--------------|
G|--10-10-10-10-10----10-10-10-10-10----10----------------|
D|--------------------------------------------------------|
A|--------------------------------------------------------|
E|--------------------------------------------------------|

  bass
G|-----------------------------------|-----------------------------------|
D|-------------------0--0--3-5-3-0---|-------------------0--0--3-5-3-0---|
A|----------3-3----------------------|----------3-3----------------------|
E|------2-3--------------------------|------2-3--------------------------|
        Low rider knows every street, yeah
        Low rider, is the one to meet, yeah
[ Tab from: http://www.guitartabs.cc/tabs/w/war/low_rider_tab_ver_3.html ]
gtr.  (bass keeps playing)
E|--7-7-7-7-7-8-10-10---7-8-7-------7-7-7-7-7-8-10-10---7-8-7---|
B|--------------------8-------8-----------------------8-------8-|
G|--------------------------------------------------------------|
D|--------------------------------------------------------------|
A|--------------------------------------------------------------|
E|--------------------------------------------------------------|

E|--------------------------------------------------------|
B|-----------------------------------------8--------------|
G|--10-10-10-10-10----10-10-10-10-10----10----------------|
D|--------------------------------------------------------|
A|--------------------------------------------------------|

  bass
G|-----------------------------------|-----------------------------------|
D|-------------------0--0--3-5-3-0---|-------------------0--0--3-5-3-0---|
A|----------3-3----------------------|----------3-3----------------------|
E|------2-3--------------------------|------2-3--------------------------|
        Low rider don't use no gas now
        The low rider don't drive too fast

gtr.  (bass keeps playing)
E|--7-7-7-7-7-8-10-10---7-8-7-------7-7-7-7-7-8-10-10---7-8-7---|
B|--------------------8-------8-----------------------8-------8-|
G|--------------------------------------------------------------|
D|--------------------------------------------------------------|
A|--------------------------------------------------------------|
E|--------------------------------------------------------------|

E|--------------------------------------------------------|
B|-----------------------------------------8--------------|
G|--10-10-10-10-10----10-10-10-10-10----10----------------|
D|--------------------------------------------------------|
A|--------------------------------------------------------|

  bass
G|-----------------------------------|-----------------------------------|
D|-------------------0--0--3-5-3-0---|-------------------0--0--3-5-3-0---|
A|----------3-3----------------------|----------3-3----------------------|
E|------2-3--------------------------|------2-3--------------------------|
        Take a little trip,                 take a little trip
        Take a little trip and see
        Take a little trip,                 take a little trip
                                            Take a little trip with me
gtr.  (bass keeps playing)
E|--7-7-7-7-7-8-10-10---7-8-7-------7-7-7-7-7-8-10-10---7-8-7---|
B|--------------------8-------8-----------------------8-------8-|
G|--------------------------------------------------------------|
D|--------------------------------------------------------------|
A|--------------------------------------------------------------|
E|--------------------------------------------------------------|

E|--------------------------------------------------------|
B|-----------------------------------------8--------------|
G|--10-10-10-10-10----10-10-10-10-10----10----------------|
D|--------------------------------------------------------|
A|--------------------------------------------------------|


        Mainly i fixed some problems with other versions... and i have put both the bass part
and the guitar part so you can tell when what lyrics go where.. it may not confuse some but
people who have small brain like me need....   OH LOOK AT THAT BIRD!!!

         Gta3freak711@aol.com
Comments