War - Low Rider Chords & Tabs

 

Low Rider Chords & Tabs

War Chords & Tabs

Version: 2 Type: Tab 0 ratings
1 star 2 stars 3 stars 4 stars 5 stars
comments

Low Rider Tab

Title:     Lowrider
Artist:    War
Tuning:    Standard
Tabbed by: Andrew Jackson(2/15/2002)

[ Tab from: http://www.guitartabs.cc/tabs/w/war/low_rider_tab_ver_2.html ]
E|--7-7-7-7-7-8-10---7-8-7-------7-7-7-7-7-8-10---7-8-7---
B|-----------------8-------8--------------------8-------8-
G|--------------------------------------------------------
D|--------------------------------------------------------
A|--------------------------------------------------------
E|--------------------------------------------------------


E|--------------------------------------------------------
B|-----------------------------------------8--------------
G|--10-10-10-10-10----10-10-10-10-10----10----------------
D|--------------------------------------------------------
A|--------------------------------------------------------
E|--------------------------------------------------------
Comments