War - Low Rider Chords & Tabs

 

War Chords & Tabs

Version: 8 Type: Bass Tab 0 ratings
1 star 2 stars 3 stars 4 stars 5 stars
comments

Low Rider Bass Tab

INTRO/VERSE
G|---------------------------------------------------------------------------|
D|------------------0--0--3-5-3-5-3-------------------------------------------|
A|----------13---------------------------------------------------------------|
E|------13-------------------------------------------------------------------|

G|---------------------------------------------------------------------------|
D|------------------0--0--3-5-3-5-3-------------------------------------------|
A|----------13---------------------------------------------------------------|
E|------13-------------------------------------------------------------------|

G|---------------------------------------------------------------------------|
D|------------------0--0--3-5-3-5-3-------------------------------------------|
A|----------13---------------------------------------------------------------|
E|------13-------------------------------------------------------------------|
[ Tab from: http://www.guitartabs.cc/tabs/w/war/low_rider_btab_ver_8.html ]
G|---------------------------------------------------------------------------|
D|------------------0--0--3-5-3-5-3-------------------------------------------|
A|----------13---------------------------------------------------------------|
E|------13-------------------------------------------------------------------|

G|---------------------------------------------------------------------------|
D|------------------0--0--3-5-3-5-3-------------------------------------------|
A|----------13---------------------------------------------------------------|
E|------13-------------------------------------------------------------------|

G|---------------------------------------------------------------------------|
D|------------------0--0--3-5-3-5-3-------------------------------------------|
A|----------13---------------------------------------------------------------|
E|------13-------------------------------------------------------------------|


OUTRO
G|---------------------------------------------------------------------------|
D|------------------0--0--3-5-3-5-3------------------------------------------|
A|----------13---------------------------------------------------------------|
E|------13-------------------------------------------------------------------|
Comments