War - Low Rider Chords & Tabs

 

Low Rider Chords & Tabs

War Chords & Tabs

Version: 5 Type: Bass Tab 0 ratings
1 star 2 stars 3 stars 4 stars 5 stars
comments

Low Rider Bass Tab

Standard Tuning

War: Low rider

INTRO/VERSE
G|---------------------------------------------------------------------------|
D|------------------0--0--3-5-3-0--------------------------------------------|
A|----------33---------------------------------------------------------------|
E|------23-------------------------------------------------------------------|

G|---------------------------------------------------------------------------|
D|------------------0--0--3-5-3-0--------------------------------------------|
A|----------33---------------------------------------------------------------|
E|------23-------------------------------------------------------------------|

G|---------------------------------------------------------------------------|
D|------------------0--0--3-5-3-0--------------------------------------------|
A|----------33---------------------------------------------------------------|
E|------23-------------------------------------------------------------------|
[ Tab from: http://www.guitartabs.cc/tabs/w/war/low_rider_btab_ver_5.html ]
G|---------------------------------------------------------------------------|
D|------------------0--0--3-5-3-0--------------------------------------------|
A|----------33---------------------------------------------------------------|
E|------23-------------------------------------------------------------------|

G|---------------------------------------------------------------------------|
D|------------------0--0--3-5-3-0--------------------------------------------|
A|----------33---------------------------------------------------------------|
E|------23-------------------------------------------------------------------|

G|---------------------------------------------------------------------------|
D|------------------0--0--3-5-3-0--------------------------------------------|
A|----------33---------------------------------------------------------------|
E|------23-------------------------------------------------------------------|


OUTRO
G|---------------------------------------------------------------------------|
D|------------------0--0--3-5-3-0-0------------------------------------------|
A|----------33---------------------------------------------------------------|
E|------23-------------------------------------------------------------------|

ez tune!!
Comments