Wannadies - You And Me Song Chords & Tabs

 

You And Me Song Chords & Tabs

Wannadies Chords & Tabs

Version: 1 Type: Bass Tab 1 rating
1 star 2 stars 3 stars 4 stars 5 stars
comments

You And Me Song Bass Tab

   
"You and me Song" by the Wannadies
 
Tabbed by Rob.  If you have any questions, contact me at dvon_rob@hotmail.com
 
This is a simple song, but very effective.  I couldn't find the tabs anywhere,
so I decided to find them for myself, with a little help from my friends (Cheers Al)!!!
 
--------------------------------------------------------------------------------------------------------------------------------------------------------------------------------------------
 
Chorus:
 
Wait 'till "And it's always you and me..."
 
G
D  0-0000  22222  4-4444  55555
A
E
 
G
D  0-0000  22222  4-4444  55555
A
E
--------------------------------------------------------------------------------------------------------------------------------------------------------------------------------------------
  "bah bah bah bah bah"
G
D
A  00000
E            33333
 
G
D
A  00000      00
E            333
--------------------------------------------------------------------------------------------------------------------------------------------------------------------------------------------
 
G
D  0-0000  22222  4-4444  5 (let ring)
A
E
--------------------------------------------------------------------------------------------------------------------------------------------------------------------------------------------
 
Verse:  (slow part)
 
G
D    0----0--0--0--0        2--2--2--2--2
A
E
 
G
D    4----4--4--4--4        5--5--5--5--5
A
E
 
G
D    0----0--0--0--0        2--2--2--2--2
A
E
 
G
D    0----0--0--0--0        5--5--5--5--5
A
E
--------------------------------------------------------------------------------------------------------------------------------------------------------------------------------------------
 
Chorus:
 
G
D  0-0000--22222--4-4444--55555
A
E
 
G
D  0-0000--22222--4-4444--55555
A
E
--------------------------------------------------------------------------------------------------------------------------------------------------------------------------------------------
  "bah bah bah bah bah"
G
D  
A  00000
E            33333
 
G
D
A  00000      00
E            333
--------------------------------------------------------------------------------------------------------------------------------------------------------------------------------------------
 
G
D  0-0000--22222--4-4444--55555
A
E
 
G
D  0-0000--22222--4-4444--55555
A
E
--------------------------------------------------------------------------------------------------------------------------------------------------------------------------------------------
  "bah bah bah bah bah"
G
D
A  00000
E            33333
 
G
D
A  00000      00
E            333
--------------------------------------------------------------------------------------------------------------------------------------------------------------------------------------------
 
G
D  0-0000--22222--4-4444--55555
A
E
 
G
D  0-0000--22222--4-4444--55555
A
E
--------------------------------------------------------------------------------------------------------------------------------------------------------------------------------------------
  "bah bah bah bah bah"
G
D
A  00000
E            33333
 
G
D
A  00000
E            3 (let ring)
--------------------------------------------------------------------------------------------------------------------------------------------------------------------------------------------
 
ending:
 
G
D  5 (let ring)
A
E
--------------------------------------------------------------------------------------------------------------------------------------------------------------------------------------------
 
It's just one of those songs that never gets boring, maybe it's
a result of it's simplicity.
 
The Wannadies recently performed at the Concert in Scotland,
"T-in the park"  Their live performance was exceptionally good.
 
Well hope you enjoy it.


[ Tab from: http://www.guitartabs.cc/tabs/w/wannadies/you_and_me_song_btab.html ]
Comments