Wan Long Kok - Pyro Chords & Tabs

 

Pyro Chords & Tabs

Wan Long Kok Chords & Tabs

Version: 1 Type: Tab 0 ratings
1 star 2 stars 3 stars 4 stars 5 stars
comments

Pyro Tab

Guitar Tabs for Wan Long Kok's Pyro
Music and Lyrics By Wan Long Kok
Tabbed out by Dinny Ghafar
http://www.wanlongkoksucks.cjb.net

Guitar Tuned half a step lower, transposed to dropped-D

Tab Index (for the tab impared) 
h --> Hammer On	    * --> Natural Harmonic
p --> Pull Off	    (7)-> Sustain
x --> Ghost Note    / --> Slide Up
p.m-> Palm Mute	    \ --> Slide Down

 =======
 |Intro|
 =======

p.m------->                      p.m------>
eb|-------------------------------|--------------------------------------|
Bb|-------------------------------|--------------------------------------|
Gb|-----------0h2--------------2--|-----------0h2------------------------|
db|--0--0--0-------3--2--2--3-----|--0--0--0-------3--2--2--3--(3)--(0)--|
Ab|--0--0--0----------------------|--0--0--0-----------------------------|
Db|--0--0--0----------------------|--0--0--0-----------------------------|


 =========
 | Verse |
 =========

eb|-------------------------------|--------------------------------------|
Bb|-------------------------------|--------------------------------------|
Gb|-----------0h2--------------2--|-----------0h2------------------------|
db|--0--0--0-------3--2--2--3-----|--0--0--0-------3--2--2--3--(3)--(0)--|
Ab|-------------------------------|--------------------------------------|
Db|-------------------------------|--------------------------------------|

[ Tab from: http://www.guitartabs.cc/tabs/w/wan_long_kok/pyro_tab.html ]
 ==========
 |Chorus 1|
 ==========
                                                                           Coda-O-
eb|------------------------------------|-----------------------------------|-----------|
Bb|------------------------------------|-----------------------------------|-----------|
Gb|------------------------------------|-----------------------------------|-----------|
db|--0--0--0---7-0---3--2-2-3-----3/7--|--0--0--0---7-0---3--2-2-3---3--0--|--0-0-0-0--|
Ab|--0--0--0---7-0---3--2-2-3-----3/7--|--0--0--0---7-0---3--2-2-3---3--0--|--0-0-0-0--|
Db|--0--0--0---7-0---3--2-2-3-----3/7--|--0--0--0---7-0---3--2-2-3---3--0--|--0-0-0-0--|


 ==========
 |Chorus 2|
 ==========

eb|------------------------------------------------------------------|
Bb|------------------------------------------------------------------|
Gb|------------------------------------------------------------------|
db|--8-8-8-8-8---10-10-10-10-10-10---7-7-7-7-7-7---7-7--7/---10-10---|
Ab|--8-8-8-8-8---8--8--8--8--8--8----5-5-5-5-7-5---5-5--5/---8--8-7--|
Db|--8-8-8-8-8---8--8--8--8--8--8----5-5-5-5-5-5---0-0--0/---0--0-7--|


 ========
 |Bridge|
 ========

Guitar 1 - Same as intro/verse

Guitar 2
 p.m----------------------->
eb|---------------------------|
Bb|---------------------------|
Gb|---------------------------|
db|--0-0-0----0-0-0----0-0-0--|
Ab|--0-0-0----0-0-0----0-0-0--|
Db|--0-0-0----0-0-0----0-0-0--|


~~~~~~~~~~~~~~~~~~
| Arrangement:-  |
| Intro      x2  |
| Chorus 1   x4  |
| Verse      x4  |
| Chorus 1   x2  |
| Verse      x3  |
| Chorus 1   x2  | 
| Verse      x3  |
| Chorus 1   x2  |
| Chorus 2   x2  |
| Bridge     x4  |
| Chorus 1   x2  |
| Chorus 2   x2  |
| Chorus 1   x4  |
~~~~~~~~~~~~~~~~~~
Comments