Walsh Joe - Meadows Chords & Tabs

 

Meadows Chords & Tabs

Walsh Joe Chords & Tabs

Version: 1 Type: Tab 0 ratings
1 star 2 stars 3 stars 4 stars 5 stars
comments

Meadows Tab

this is played in a d mostly.     p= pull off

                                                ____________________________
                                               ( lightly up and down strokes)
                                                (                 )   )   )  )
e---2--3-p-3--2--3-p-3-p-3--2--2----2------3-p-3--2--2-2-2-2-2-2-2------------
b---3--3---3-----3---3---3-----------------3---3-----3-3-3-3-3-3-3------------
g---2--2---2-----2---2---2-------2---------2---2-----2-2-2-2-2-2-2------------
d--------------------------------------0--------------------------------------
a-----------------------------------------------------------------------------
e-----------------------------------------------------------------------------



e---3-p-3-2--3-p-3-p-3--2-2--------------------------------------2------------
b---3---3----3---3---3----------3--------------------------------3------------
g---2---2----2---2---2-------2------------0--------0-------------2------------
d--------------------------------------2--------0---------0-------------------
a-----------------------------------3--------2--------------------------------
e------------------------------------------------------3----------------------

[ Tab from: http://www.guitartabs.cc/tabs/w/walsh_joe/meadows_tab.html ]
e-2----------------------------------2---2----------------------------------------------------------------------
b--------3---------------------------3---------3----------------------------------------------------------------
g----2------------0-------0----------2------2---------0------0-----------0-----0----------0-----0----------------
d--------------2-------0--------0-------------------2------0-----0-----2-----0------0---2-----0--------0---------
a-----------3-------2-----------------------------3------2-----------3-----2----------3-----2-------------------
e----------------------------3---------------------------------3------------------3----------------3-------------


e--2-----------2----2-2----3-3----5-5---7-7-7-7-----3-3--3----2-2----2--------------------
b--3--pause----3----3-3----5-5----7-7---8-8-8-8-----5-5--5----3-3----3--------------------
g--2-----------2----2-2----4-4----7-7---7-7-7-7-----4-4--4----2-2----2--------------------
d-----------------------------------------------------------------------------------------
a-----------------------------------------------------------------------------------------
e-----------------------------------------------------------------------------------------

those are the main parts. listen to the song to figure out the order for different parts, but that is the begining and those chords are used throughout the whole song
rock on bros!!
Comments