Walls Of Jericho - No Saving Me Chords & Tabs

 

Walls Of Jericho Chords & Tabs

Version: 1 Type: Tab 0 ratings
1 star 2 stars 3 stars 4 stars 5 stars
comments

No Saving Me Tab

Walls Of Jericho - No Saving Me

Drop D tuning

Intro/verse 1
e----------------------------------------------------------------|
b----------------------------------------------------------------|
g-14-------------------------------------------------------------|
d-12-----12----------7-7---7--12b-12121012-----------------------| x6
a-12h13----13-10--8---8---8---------------10---10-13-13-13-12-10-|
d---------------12----------------------------0----0--0--0--0--0-|

Chorus
e-----------------------------------------------------------------|
b-----------------------------------------------------------------|
g-12---12-12--10---10--10-10-10--7---7-7--3--3-3-3-3--------------|
d-----------------------------------------------------------------| x4
a-10---10-10---8----8---8--8--8--5---5-5--1--1-1-1-1--------------|
d-----------------------------------------------------------------|
[ Tab from: http://www.guitartabs.cc/tabs/w/walls_of_jericho/no_saving_me_tab.html ]
Verse x4

chorus x4

Solo
e------------------------------------------------------------|
b---------------------------------------------------------64-|
g---------------------------------------------------575-57---|
d-5---5--7-7--778753--33-5-1-7b-7b-3-5-8753--3--5858---8-----|
a------------------------------------------------------------|
d------------------------------------------------------------|

e------------1311-------1311----------------181715----------181715-------|
b---6-688--11----15---11----151113-15-11--11------15--13--11------15--15-|
g-57-7----------------------------------------------15--------------15---|
d------------------------------------------------------------------------|
a------------------------------------------------------------------------|
d------------------------------------------------------------------------|

verse x2

chorus x4

verse x2
Comments