Walls Of Jericho - A Little Piece Of Me Chords & Tabs

 

A Little Piece Of Me Chords & Tabs

Walls Of Jericho Chords & Tabs

Version: 1 Type: Tab 0 ratings
1 star 2 stars 3 stars 4 stars 5 stars
comments

A Little Piece Of Me Tab

Walls of Jericho
“A little piece of me”

hi iggy here this is a new song from Walls of Jericho most of you have
 probably not heard of them. For those of you have, you’ll know this 
is an awesome song. It is really fast and brutal. I haven’t gotten the
 whole song yet but I will get it later

Drop D tuning (dadgbe)



intro
------------------------------------------------------------
------------------------------------------------------------
------------------------------------------------------------
-----3----3----5------------------------------------------
-----3----3----5------------------------------------------
-----3----3----5------------------------------------------
[ Tab from: http://www.guitartabs.cc/tabs/w/walls_of_jericho/a_little_piece_of_me_tab.html ]
verse riff
------------------------------------------------------
------------------------------------------------------
------------------------------------------------------
------2220000222322200-----8------88--------
------22200002223222002----8------88-------
------22200002223222002----8--0---88-------
                                                       
breakdown
------------------------------------------------------
------------------------------------------------------
------------------------------------------------------
---222--222222222-------------------------------
---222--222222222-------------------------------
---222--222222222-------------------------------


that is pretty much it except some riffs after the breakdown and I will find those later
IGGY
Comments