Wallflowers - Josephine Solos Chords & Tabs

 

Josephine Solos Chords & Tabs

Wallflowers Chords & Tabs

Version: 1 Type: Tab 0 ratings
1 star 2 stars 3 stars 4 stars 5 stars
comments

Josephine Solos Tab

Wallflowers - Josephine Solos
SOLO 1

e--------------------------------------------------------------------------
B--------17--------------17-15-14-15---14-15-14--12--10--------------------
G--------------------------------------------------------------------------
D--------------------------------------------------------------------------
A--------------------------------------------------------------------------
E--------------------------------------------------------------------------

e--------------------------------------------------------------------------
B--------14-14-12--------------15------14-15--14-12------------------------
G--------------------------------------------------------14-13-------------
D--------------------------------------------------------------------------
A--------------------------------------------------------------------------
E--------------------------------------------------------------------------

SOLO 2
[ Tab from: http://www.guitartabs.cc/tabs/w/wallflowers/josephine_solos_tab.html ]
e--------------------------------------------------------------------------
B--------------------------------------------------------------------------
G--11-9--------------------------------------------------------------------
D--12-11-----12-11-12-11-11-12----11----12-11-11--------11-14-11---12------
A--------------------------------------------------------------------------
E--------------------------------------------------------------------------

e--------------------------------------------------------------------------
B----------------------------------------------------------14------14-14-12
G----------------------------11-13-14-13--11--13--14-----------------------
D--12-12-12--12-12-11---9--------------------------------------------------
A--------------------------------------------------------------------------
E--------------------------------------------------------------------------

e--------------------------------------------------------------------------
B--10-12-10----------10-------------------------------------17--15----14---
G--------------11-11----11--11-9--9-----------------9----------------------
D-----------------------------------12--11-12-11------11-------------------
A------------------------------------------------12------------------------
E--------------------------------------------------------------------------

e-------------P------------------------------------------------------------
B--15-15-15-15-14-14------14----14----14----14----14--------14-------------
G----------------14-----14----14----14----14----14--------14----14--14-----
D--------------------------------------------------------------------------
A--------------------------------------------------------------------------
E--------------------------------------------------------------------------

Comments