Walkmen - North Pole Chords & Tabs

 

North Pole Chords & Tabs

Walkmen Chords & Tabs

Version: 1 Type: Tab 0 ratings
1 star 2 stars 3 stars 4 stars 5 stars
comments

North Pole Tab

The North Pole by The Walkmen

Tuning; Tune down half step

Verse: Maybe It's not Good and it's not bad....

e|--------------------2----3-2------------|
b|--2--5-2----5-2-----3----3-3------------|
g|--2--2-2-x3-2-2-x2--2-x5-2-2------------|
d|--2--2-2----2-2-----0----0-0------------|
a|--0--0-0----0-0-------------------------|
e|----------------------------------------|

Chrous: Everbody knows!/ That's the way it goes!

e|--2x2x2-2x2---4----6-5-/while strumming-C#m-------|
b|--2x2x2-2x2---5-----------------------------------|
g|--2x2x2-2x2---6-x3--------------------------------|
d|--4x4x4-4x4---6-----------------------------------|
a|--4x4x4-4x4---6-----------------------------------|
e|--2x2x2-2x2---4-----------------------------------|
[ Tab from: http://www.guitartabs.cc/tabs/w/walkmen/north_pole_tab.html ]
Bridge: Your Monday Morning train.../ It times like these.....

e|--2-----4----6-5-/while stumming C#m---------------|
b|--3-----5------------------------------------------|
g|--4-----6-x2---------------------------------------|
d|--4-----4------------------------------------------|
a|--2-----4------------------------------------------|
e|---------------------------------------------------|

e|--/12--9---7-7--in there somewhere-----------------|
b|---------------------------------------------------|
g|---------------------------------------------------|
d|---------------------------------------------------|
a|---------------------------------------------------|
e|---------------------------------------------------|

Verse 1
Chorus
Verse 2
Chorus
Bridge
Verse 3
Chorus
Bridge
Verse 4
Comments