Waits Tom - Goin Out West Chords & Tabs

 

Goin Out West Chords & Tabs

Waits Tom Chords & Tabs

Version: 1 Type: Tab 0 ratings
1 star 2 stars 3 stars 4 stars 5 stars
comments

Goin Out West Tab

capo on the 5th fret



verse

-----------------------------------------------------------------------------
--3------------------2-------------------------------------------------------
----------------------------------------3------------------0-----------------
------0------0-----------0------0-----------0------0-----------0------0------
--------1------1-----------1------1-----------1------1-----------1------1----
--3-------3------3---3-------3------3---3-------3------3---3-------3------3--





chorus
[ Tab from: http://www.guitartabs.cc/tabs/w/waits_tom/goin_out_west_tab.html ]
----------------------------------------------------
----------------------------------------------------
-3/5-5-5-5----3/5-5-5-5-----------------------------
-3/5-5-5-5----3/5-5-5-5----3/5-5-5-5----3/5-5-5-5---
-1/3-5-5-5----1/3-5-5-5----3/5-5-5-5----3/5-5-5-5---
---------------------------1/3-3-3-3----1/3-3-3-3---



----------------------------------------------------
----------------------------------------------------
-3/5-5-5-5----3/5-5-5-5-5-5-5-7----7-7-7-5----------
-3/5-5-5-5----3/5-5-5-5-5-5-5-7----7-7-7-5----------
-1/3-5-5-5----1/3-5-5-5-3-3-3-5----5-5-5-3----------
----------------------------------------------------




	         --x--
                 --x--
add the needed	 --x--'s  between the chords
		 --x--
		 --x--
		 --x--



p.s.

this is not exactly the way it's played, but it works.

Comments