Wahre Luegen - 1999 Chords & Tabs

 

1999 Chords & Tabs

Wahre Luegen Chords & Tabs

Version: 1 Type: Tab 0 ratings
1 star 2 stars 3 stars 4 stars 5 stars
comments

1999 Tab

Wahre Luegen - 1999
By:Andrew Mcshan(Guitarguyx182@aol.com)

Intro
e|-3-2-0-2-3-2-----3-2------2--3-2------------------------------|
B|---------------3------5-3---------3--5-7-5-3-----8-7-5-3-2----|
G|--------------------------------------------------------------|
D|--------------------------------------------------------------|
A|--------------------------------------------------------------|
E|--------------------------------------------------------------|
[ Tab from: http://www.guitartabs.cc/tabs/w/wahre_luegen/1999_tab.html ]
Verse and Chorus
e|--------------------------------------------------------------|
B|--------------------------------------------------------------|
G|--4-----7-----------------------------------------------------|
D|--4--5--7--4--------------------------------------------------|
A|--2--5--5--4--------------------------------------------------|
E|-----3-----2--------------------------------------------------|

Solo/Bridge
e|-----3-2-2-3-2-2----------------------------------------------|
B|--------------------7p--5-3-2---2-3-5-7-----------------------|
G|-4----------------------------7-------------------------------|
D|-4----------------5-----------7-------------------------------|
A|-2----------------5-----------5-------------------------------|
E|------------------3-------------------------------------------|

im not really sure about the solo, but i think the rest of the song is correct.
Comments