Wade Johnson - National Amthem Chords & Tabs

 

National Amthem Chords & Tabs

Wade Johnson Chords & Tabs

Version: 1 Type: Tab 1 rating
1 star 2 stars 3 stars 4 stars 5 stars
comments

National Amthem Tab

E------------------------------
B------------------------------
G------------------9-7---------
D--------------10-----10-------
A--10-7---7-10-----------7-9-10
E-------8----------------------



E---------------------------------
B---------------------------------
G--------9-7----------------------
D------------10-9-7-9-10-10-------
A--10-10--------------------10-7--
E--------------------------------8



E---------------------------------
B---------------------------------
G--------9-7----------------------
D--------------10-----10----------
A--10-7---7-10-----------7-9-10---
E-------8-------------------------

E---------------------------------
B---------------------------------
G-------------------9-7-----------
D--------------10-----10----------
A--10-7---7-10-----------7-9-10---
E-------8-------------------------

E----------------------------------
B----------------------------------
G--------9-7-----------------------
D-------------10-9-7-9-10-10-------
A--10-10---------------------10-7--
E----------------------------------8
[ Tab from: http://www.guitartabs.cc/tabs/w/wade_johnson/national_amthem_tab.html ]
E------------------------------------
B-----------8-8----------------------
G--9-9-9-10-----10-9-7-9-10-10-------
D------------------------------------
A------------------------------------
E------------------------------------

E-----------------------------
B-----------------------------
G--10-9-7---------------------
D---------10-9-7-9-10-10------
A------------------------10-8-6
E------------------------------

E--------------------------------------
B--------------------------------------
G----------------------7-10-9-7--------
D-----10-10-10-9-7-7-7---------10-10-9-
A--10----------------------------------
E--------------------------------------

E-------------------------------------
B-----------------8-------------------
G----------7-9-10-------7-9-10-7-12---
D--------10----------10-----------10--
A--10-10------------------------------
E-------------------------------------


This is the right way to play the National Amthem
qustions or comments E-Mail me at mattwadejohnson@yahoo.com I will be happy to fix
any changes to the song, but the better be right.
Comments