Vulgaires Machins - Faut Pas Sleurer Chords & Tabs

 

Faut Pas Sleurer Chords & Tabs

Vulgaires Machins Chords & Tabs

Version: 1 Type: Tab 0 ratings
1 star 2 stars 3 stars 4 stars 5 stars
comments

Faut Pas Sleurer Tab

www.vulgairesmachins.org

Intro

guit 1
e|----------------------------------------------------------|---------------
b|----------------------------------------------------------|--15--14-14--x8
g|--------10--14-12-10-9-10--------10--14-12-10-9-10-12-14~-|--14--14-14----
d|--10h12--------------------10h12--------------------------|---------------
a|----------------------------------------------------------|---------------
E|----------------------------------------------------------|---------------

guit 2 (4 temps chaques accords)
e|--2--1-----3-----------10-----8-----|
b|--3--1--1--3-----------10-10--8--12-|
g|--2--2--0--0-----ou----11-10--9--12-|---x4
d|--0--3--2--0-----------12-10-10--12-|
a|-----3--3--2-----------12--8-10--10-|
E|-----1-----3-----------10-----8-----|

||||||||||||||||||||||||||||||||||||||||||||||||||||||||||||||||||||||||||||||||
[ Tab from: http://www.guitartabs.cc/tabs/v/vulgaires_machins/faut_pas_sleurer_tab.html ]
jouer le reste de la chanson comme elle est écrit
(écouter la toune pour les temps)
  je dis bonjour à l'anarchie...
e|--2--1-----3-----|-----------------------------------|
b|--3--1--1--3-----|-----------------------------------|
g|--2--2--0--0--x4-|--7-----10-------------------------|
d|--0--3--2--0-----|--7--x4-10--x4-10-----5---------X2-|
a|-----3--3--2-----|--5------8-----10--x4-5--x4--------|
E|-----1-----3-----|----------------8-----3------------|

   j'ai bien tanté d'me conformer...
e|--2--1-----3-----|-----------------------------------|
b|--3--1--1--3-----|-----------------------------------|
g|--2--2--0--0--x4-|--7-----10-------------------------|
d|--0--3--2--0-----|--7--x4-10--x4-10-----5---------X2-|
a|-----3--3--2-----|--5------8-----10--x4-5--x4--------|
E|-----1-----3-----|----------------8-----3------------|

essayer pas d'me dire...
e|-------------------------------------------------------------|
b|-------------------------------------------------------------|
g|-10---------------------------------5------3-----------------|
d|-10--x4-10-----8-----10------3------5--x4--3--laisser sonner)|
a|--8-----10--x4-8--x4-10--x4--3--x4--3------1-----------------|
E|---------8-----6------8------1-------------------------------|

  ( 4 coups de pic chauque accords)
e|--10-----8--------|
b|--10-10--8--12----|
g|--11-10--9--12--x2| répeter 4 fois mais entre le 2e et le 3e accord seulement 
d|--12-10-10--12----| une fois ( écouter la toune)
a|--12--8-10--10----|
E|--10-----8--------|   <--------------------------|
                                                   |
répetez le tout fauf l'intro et le parti au dessus |


 ET VOILA
QUESTION OU COMMENTAIRES dr_canabis101@hotmail.com
Comments