Vox Dei - El Faisan Y La Codorniz Chords & Tabs

 

El Faisan Y La Codorniz Chords & Tabs

Vox Dei Chords & Tabs

Version: 1 Type: Tab 0 ratings
1 star 2 stars 3 stars 4 stars 5 stars
comments

El Faisan Y La Codorniz Tab

Intro:
||-----------------------------------------------------|
||-----------------------------------------------------|
||----------------7-9-7-9(BU)-7-9-7--------7h9p7---7---|
||------------7-9--------------------9-7-9-------9---9-|
||--------7-9------------------------------------------|
||--/7-10----------------------------------------------|

                      ____trino____
||---------------------------------------------|
||---------------------------------------------|
||----------------7-9-7h9p7h9p7h...----7h9(BU)-|
||------------7-9--------------------9---------|
||--------7-9----------------------------------|
||--/7-10--------------------------------------|


||----7-----------------------------10(12)-10-7---------------------|
||--7---7--10(12)-10-7-10(12)-10-7--------------10(12)-(12)-10------|
||--------------------------------------------------------------7---|
||----------------------------------------------------------------9-|
||------------------------------------------------------------------|
||------------------------------------------------------------------|


||---------------------------------------------------------------|
||---------------------------------------------------------------|
||--(11)(9)-7-9--7h9(BU)(BD)9p7-----7h9p7-9--(BD)(9)-7-9p7---7---|
||------------------------------9--------------------------9---9-|
||---------------------------------------------------------------|
||---------------------------------------------------------------|


||--------------------------------------|
||--------7-10-7------------------------|
||--9(11)--------9(11)---9-7--------7h9-|
||---------------------------9--7h9-----|
||--------------------------------------|
||--------------------------------------|
[ Tab from: http://www.guitartabs.cc/tabs/v/vox_dei/el_faisan_y_la_codorniz_tab.html ]
Solo:
                                  ____trino____
||----------------------------------------------------------|
||----------------------------------------------------------|
||----------------7-9-7-9(BU)-7-9-7h9p7h9p7h...p7---------7-|
||------------7-9---------------------------------9-7h9-9---|
||--------7-9-----------------------------------------------|
||--/7-10---------------------------------------------------|


||-------------------------------------------------------------|
||-----------------------------------------10-(12)-10-7-10(12)-|
||--(BD)(9)-7-9p7---7----(BD)-7-9p7---7------------------------|
||----------------9---9-------------9---9----------------------|
||-------------------------------------------------------------|
||-------------------------------------------------------------|


||---------------------------------------------------------10h12-12-|
||--10(12)-10-7-10(12)-10-7-------------------------10--12----------|
||--------------------------7h9p7-------7-9-7--9/11-----------------|
||--------------------------------9-7-9-----------------------------|
||------------------------------------------------------------------|
||------------------------------------------------------------------|


||10-12-12(BU)-12-10-12----10--(BD)(12)-10-12----10-----------10----10h12\-|
||----------------------12--------------------12-----10h12-12----12--------|
||-------------------------------------------------------------------------|
||-------------------------------------------------------------------------|
||-------------------------------------------------------------------------|
||-------------------------------------------------------------------------|

Aca le dudo...
||--10--9--7--5----10--9--7--5--------7--------------10--9--7--5--------|
||--12--10-7--5----12--10-7--5----------10-7---------12--10-7--5--------|
||--11--9--7--6----11--9--7--6--9(11)---------9(11)--11--9--7--6--9(11)-|
||------------7--------------7---------------------------------7--------|
||----------------------------------------------------------------------|
||----------------------------------------------------------------------|


||--------------------------------------------------------|
||-------------------------------------------(9)----------|
||--9(BU)^(BD)^(BU)--(BD)(9)---7----------7/9-9-7---------|
||---------------------------9---9-7h9-9--7/9-9-7-9--9--7-|
||------------------------------------------------9--9--7-|
||---------------------------------------------------7--5-|
Comments