Voodoo Glow Skulls - Nazican Chords & Tabs

 

Nazican Chords & Tabs

Voodoo Glow Skulls Chords & Tabs

Version: 1 Type: Bass Tab 0 ratings
1 star 2 stars 3 stars 4 stars 5 stars
comments

Nazican Bass Tab

Song: Nazican
Band: Voodoo Glow Skulls
Album: baile de los locos
tabbed by: Carlos Pino

    intro                                       x4
G:---------------------------------------------------------------
D:---------------------------------------------------------------
A:--7-7--------------8-8--------------------------------------
E:--------8-8--5-5-------10-10-7-7-----------------------

[ Tab from: http://www.guitartabs.cc/tabs/v/voodoo_glow_skulls/nazican_btab.html ]
G:---------------------------------------------------------------
D:---------------------------------------------------------------
A:--7-----------8-----------------------------------------------
E:------8--5-------10--7--------------------------------------

    chorus
G:---------------------------------------------------------------
D:---------------------------------------------------------------
A:---------------------------------------------------------------
E:-5-6-5-8--5-9-5-8-----------------------------------------

   bridge
G:---------------------------------------------------------------
D:---------------------------------------------------------------
A:---------------------------------------------------------------
E:-6-5-6-5-1--6-5-6-5-1-----------------------------------



Comments