Voodoo Glow Skulls - Delinquent Song Chords & Tabs

 

Delinquent Song Chords & Tabs

Voodoo Glow Skulls Chords & Tabs

Version: 1 Type: Tab 0 ratings
1 star 2 stars 3 stars 4 stars 5 stars
comments

Delinquent Song Tab

Title: Delinquent Song
Band: Voodoo Glow Skulls
CD: Punk o Rama vol 3
Tabber: Kyle


There are only 2 riffs listen to the cd for them ill call the ist one the verse and second the chorus im sure about the ska like part thats called the intro if it doesnt sound right just play the chorus with upstrokes its all the same   
5 chords through the entire song
Verse: listen for Tming I think its 4x each but

e----7-7-7-7-7-7-7-7---3-3-3-3-3-3-3-3---2-2-2-2-2-2-2-2
B----7-7-7-7-7-7-7-7---3-3-3-3-3-3-3-3---3-3-3-3-3-3-3-3
G----7-7-7-7-7-7-7-7---4-4-4-4-4-4-4-4---4-4-4-4-4-4-4-4
D-------------------------------------------------------
A-------------------------------------------------------
E-------------------------------------------------------

e----5-5-5-5-5-5-5-5-------------------------------------
B----5-5-5-5-5-5-5-5-------------------------------------
G----6-6-6-6-6-6-6-6-------------------------------------
D--------------------------------------------------------
A--------------------------------------------------------
E--------------------------------------------------------

Chorus:I TRIED TO TAB THE TIMING
[ Tab from: http://www.guitartabs.cc/tabs/v/voodoo_glow_skulls/delinquent_song_tab.html ]
e--------------------------------------------------------
B--------------------------------------------------------
G----7-7-7---7-7-7-7-7-----------------------------------
D----7-7-7---7-7-7-7-7---5-5-5-5-5-5-5-5-----------------
A----5-5-5---5-5-5-5-5---5-5-5-5-5-5-5-5-----------------
E------------------------3-3-3-3-3-3-3-3-----------------

e--------------------------------------------------------
B--------------------------------------------------------
G----4-4-4---4-4-4-4-4---2-2-2-2-2-2-2-2-----------------
D----4-4-4---4-4-4-4-4---2-2-2-2-2-2-2-2-----------------
A----2-2-2---2-2-2-2-2---0-0-0-0-0-0-0-0-----------------
E--------------------------------------------------------

e--------------------------------------------------------
B--------------------------------------------------------
G----7-7-7---7-7-7-7-7---12-12-12---12 12-12-12-12-------
D----7-7-7---7-7-7-7-7---12-12-12---12-12-12-12-12-------
A----5-5-5---5-5-5-5-5---10-10-10---10-10-10-10-10-------
E--------------------------------------------------------

e--------------------------------------------------------
B--------------------------------------------------------
G----4-4-4---4-4-4-4-4-----------------------------------
D----4-4-4---4-4-4-4-4---2-2-2-2-2-2-2-2-----------------
A----2-2-2---2-2-2-2-2---2-2-2-2-2-2-2-2-----------------
E------------------------0-0-0-0-0-0-0-0-----------------



Comments