Voodoo Glow Skulls - Construction Chords & Tabs

 

Construction Chords & Tabs

Voodoo Glow Skulls Chords & Tabs

Version: 2 Type: Bass Tab 0 ratings
1 star 2 stars 3 stars 4 stars 5 stars
comments

Construction Bass Tab

Song: Construction ( or Construcion )
Band: Voodoo Glow Skulls
Album: Firme
tabbed by: Carlos Pino

guitar intro

verse           x3                                      x1
G:---------------------------------------------------------------
D:---------------------------------------------------------------
A:-2>--4>--2>--7>---9-7-2-9-7-2-9-4-2---------------
E:---------------------------------------------------------------
[ Tab from: http://www.guitartabs.cc/tabs/v/voodoo_glow_skulls/construction_btab_ver_2.html ]
chorus                                          x4
G:---------------------------------------------------------------
D:---------------------------------------------------------------
A:------8>---6>-----------------------------------------------
E:-4>-----------------------------------------------------------

verse

riff
G:--------------------------------------------------------------
D:---------------------------------------------------------------
A:------4-2-5-4-2--------4-2-5--------4-2-5-4-2--------5-4-2-5
E:-4>-----------------4>------------4>----------------4>------------4-2

bridge                          a couple of times
G:---------------------------------------------------------------
D:---------------------------------------------------------------
A:---------------------------------------------------------------
E:--4--4-4--4--------------------------------------------------

verse
chorus
riff
Comments