Voodoo Glow Skulls - Bulletproof Chords & Tabs

 

Bulletproof Chords & Tabs

Voodoo Glow Skulls Chords & Tabs

Version: 1 Type: Bass Tab 0 ratings
1 star 2 stars 3 stars 4 stars 5 stars
comments

Bulletproof Bass Tab

Song: Bulletproof
Band: Vodoo Glow Skulls
Album: Baile de los locos
tabbed by: Carlos Pino  < lupimo@ctcreuna.cl >

    intro                                               x4
G:---------------------------------------------------------------
D:---------------------------------------------------------------
A:--------5--3------3--2--------------------------------------
E:-5--6---------1----------3----------------------------------
[ Tab from: http://www.guitartabs.cc/tabs/v/voodoo_glow_skulls/bulletproof_btab.html ]
    verse                                       x4      
G:---------------------------------------------------------------
D:---------------------------------------------------------------
A:--3-3--5-5--------------------------------------------------
E:--------------5-5-3-5---------------------------------------

intro
verse

   chorus
G:---------------------------------------------------------------
D:---------------------------------------------------------------
A:--33---------------------------------------------------------
E:-------55--11-----------------------------------------------

G:---------------------------------------------------------------
D:---------------------------------------------------------------
A:-3-3--------------------3-3---------------------------------
E:-------3-3--5-5--1-1------3-3----------------------------

verse
intro
chorus
verse


Comments