Von Dark - The Fragment Remains Chords & Tabs

 

The Fragment Remains Chords & Tabs

Von Dark Chords & Tabs

Version: 1 Type: Tab 0 ratings
1 star 2 stars 3 stars 4 stars 5 stars
comments

The Fragment Remains Tab



Here is a great song with Von Dark.......


Music: Robin Lindström
Lyrics:Robin Lindström,Carl isaksson, Jens T Fuglede



Intro:
e --------------------------------------------------------------
b --------------------------------------------------------------
g ------9-----9-------------------9----9------------------------
d ------9-----9---9-9-9-8---7-----9----9---9-9-9-8---7---9------
a ------7-----7-7---------7-------7----7-7---------7---7--------
e --0-0---0-0-----------------0-0---0-0-------------------------

e --------------------------------------------------------------
b --------------------------------------------------------------
g ------7-----7-------------------7-----7-----------------------
d ------7-----7---7-7-7-6---5-----7-----7---7-7-7-5---5---7-----
a ------5-----5-5---------5-------5-----5-5---------5---5-------
e --0-0---0-0-----------------0-0---0-0-------------------------

this intro plays two times the second 
time it's getting slower towards the end

e --------------------------------------------------------------
b --------------------------------------------------------------
g --------------------------------------------------------------
d --3-2---3-2-3-2---3-2------------5-4--------------------------
a --3-2---3-2-3-2---3-2---5-4--7-5------------------------------
e --------------------------------------------------------------


Riff: 1

e --------------------------------------------------------------
b --------------------------------------------------------------
g --------------------------------------------------------------
d --3-2-------------3-2-3-2---------3-2---------------------5-4-
a --3-2-------------3-2-3-2---------3-2-------------5-4-7-5-----
e ------0-0-0-0-0-0---------0-0-0-0-----0-0-0-0-0-0-------------


e --------------------------------------------------------------
b --------------------------------------------------------------
g --------------------------------------------------------------
d --3-2-------------3-2-2-2---------3-2-------------------------
a --3-2-------------3-2-3-2---------3-2-------------5-4-7-5-7-4-
e ------0-0-0-0-0-0---------0-0-0-0-----0-0-0-0-0-0-------------
[ Tab from: http://www.guitartabs.cc/tabs/v/von_dark/the_fragment_remains_tab.html ]
e --------------------------------------------------------------
b --------------------------------------------------------------
g --------------------------------------------------------------
d --7--5--4--2--------------------------------------------------
a --5--3--2--0--------------------------------------------------
e --------------------------------------------------------------

Vers:
e --------------------------------------------------------------
b --------------------------------------------------------------
g --------------------------------------------------------------
d ------------5---4---------------------------------------------
a ------------3---2---------------------------------------------
e --0-0-0-0-0---0-----------------------------------------------


The Chorus Carl sings While Riff 1 plays

Riff: 2

e --------------------------x-x---------------------------------
b --------------------------x-x---------------------------------
g --------------------------x-x---------------------------------
d --------------------------x-x---------------------------2-4-5-
a ------------5---4---3---4-x-x-------------------7-5-4-2-0-2-3-
e --0-0-0-0-0-3-0-2-0-1-0-2-x-x--0-0-0-0-0-0-0-0--5-3-2-0-------



e --------------------------------------------------------------
b --------------------------------------------------------------
g --------------------------------------------------------------
d --3-2---3-2-3-2---3-2------------5-4--------------------------
a --3-2---3-2-3-2---3-2---5-4--7-5------------------------------
e --------------------------------------------------------------


Riff: 3
e --------------------------------------------------------------
b --------------------------------------------------------------
g --------------------------------------------------------------
d --3-3-2-3-2---------------------------------------------------
a --3-3-2-3-2---------------------------------------------------
e ------------0-0-0-0-0-0---------------------------------------

After four times they switch to the chorus 
then they play chorus three times then they play Riff: 3 to the end


Lyrics

Vers:

You were born evil and it still remains
The evil that run through your vens

And now the time is set
You have done things you allways will regret

No one can look in to your eyes 
For they are filled with lies

You can't take it no moore
You only got the strenght to fall

Chorus:

The Fragment remains
For all the things you've done
The fragment remains

Vers:

The rules you've allways bend
Has finally comed to an end

The people you pushed to falled
Is now you're master above all

Walking in a tunnel that has no end
To be send to the bitter end

Chorus:

The Fragment remains
For all the things you've done
The fragment remains


Chorus:

The Fragment remains
For all the things you've done
The fragment remains

Comments