Von Dark - Feeding Madness Chords & Tabs

 

Feeding Madness Chords & Tabs

Von Dark Chords & Tabs

Version: 1 Type: Tab 0 ratings
1 star 2 stars 3 stars 4 stars 5 stars
comments

Feeding Madness Tab

Song: Feeding Madness

Music: Robin Lindström
Lyrics: Carl Issakson, Jens T Fuglede, Robin Lindström

Intro:
e --2---2---3-2----2---3-2----2---3-3--------x
b ----2---2---2--2---2---2--2---2---1--------x
g -------------------------------------------x
d -------------------------------------------x
a -------------------------------------------x
e -------------------------------------------x



Riff: 1
e -------------------------------------------
b -------------------------------------------
g -------------------------------------------
d --4-0-4-0-4-0-4-5--4-0-4-0-4-0-4-5---------
a --2-0-2-0-2-0-2-3--2-0-2-0-2-0-2-3---------
e -------------------------------------------


e -------------------------------------------x
b -------------------------------------------x
g ---------------------------3-2-------------x
d --4-0-4-0-4-0-4-5--4-0-4-0-----3-2-0-------x
a --2-0-2-0-2-0-2-3--2-0-2-0-----------3-2-3-x
e -------------------------------------------x



Riff: 2
e -------------------------------------------
b -------------------------------------------
g -------------------------------------------
d ------4-----------------5-4----------------
a ------2-----------------3-2----------------
e --0-0---0-0--0-0-0--0-0--------------------


e -------------------------------------------x
b -------------------------------------------x
g -------------------------------------------x
d ------5-----------------8-7----------------x
a ------3-----------------6-5----------------x
e --0-0---0-0--0-0-0--0-0--------------------x


Vers:
e -------------------------------------------
b -------------------------------------------
g -------------------------------------------
d ------------------8-7-8-7-8-7-8-7----------
a ------------------6-5-6-5-6-5-6-5----------
e --0-0-0-0-0-0-0-0--------------------------



[ Tab from: http://www.guitartabs.cc/tabs/v/von_dark/feeding_madness_tab.html ]
Chorus: 
e ---------------------------------------------------
b ---------------------------------------------------
g ---------------------------------------------------
d --4--5-4--5--8-7-8-7-8--4--5-4---------2h3p2-------
a --2--3-2--3--6-5-6-5-6--2--3-2-----2-3-------3-2-0-
e -------------------------------2-3-----------------




Riff: 3
e -------------------------------------------
b -------------------------------------------
g -------------------------------------------
d -------------------------------------------
a --------------------------3----------------
e --0-0-0-0-0-0-0-0-0-0-0-0-1----------------




Outro:
e -------------------------------------------
b --------------------11---------------------
g --------------------0----------------------
d ----4---4---4---4--------------------------
a ----2---2---2---2--------------------------
e --0---0---0---0---0------------------------

I haven't tabed the solo...try yourself!!!!!!!



Lyrics:



Vers:
Wake up in the silence
The nightmares have chosed me again

Then you hear a voice whisper
But you don't know what it is

Then I dream again.........


Chorus:

In madness...In madness I will dwell
In madness...I wake up in a hell

In madness...In madness I will dwell
In madness...I wake up in a hell

Vers:
I pray to the lord
That they will let me be

The evil that flowes in me
And it wont let me be

Then I dream again.........


Chorus:


In madness...In madness I will dwell
In madness...I wake up in a hell

In madness...In madness I will dwell
In madness...I wake up in a hell


Stick:

Go Go....Just go away
Please Please....Please dissepear

Go Go....Just go away
Please Please....Please make me free


Vers:


Living with sorrow
Living with fear

I don't wanna lay down
Because the dreams they comes again

Innocent people they gonna die by my hand......


Chorus:


In madness...In madness I will dwell
In madness...I wake up in a hell

In madness...In madness I will dwell
In madness...I wake up in a hell


Comments