Von Bondies - Sound Of Terror Chords & Tabs

 

Sound Of Terror Chords & Tabs

Von Bondies Chords & Tabs

Version: 1 Type: Tab 0 ratings
1 star 2 stars 3 stars 4 stars 5 stars
comments

Sound Of Terror Tab

   
Artist:The Von Bondies
Song:Sound Of Terror
Tabber:Dan Steadman

Standard Tuning:(high to low) E-B-G-D-A-E
I am 100% sure that this tab is correct!

e|---------------|
B|---------------|
G|---------------|
D|---------------|
A|---------------|
E|---------------|

Intro:
e|--------------------------------------------|
B|--------------------------------------------|
G|--------------------------------------------|
D|-------------------2--------------------2---|
A|------0b--------2-----2-------0b------2-----|
E|-0b--------0b------------0b-------0b--------|

e|-------------------------------------------------|
B|-------------------------------------------------|
G|-------------------------------------------------|
D|-------------------2-------------------2---------|
A|------0b--------2-----2-------0b----------2------|
E|-0b--------0b------------0b-------0b--------3-2--|

Bridge:
Guitar 1
e|--------------------------|
B|-0--/12v--0----------12v--|
G|-x--/12v--x-------12-12v--|
D|-2--/12v--2--/12v----12v--|
A|-2--------2---------------|
E|-0--------0---------------|

e|--------------------------|
B|-0--/12v--0----------12v--|
G|-x--/12v--x-------12-12v--|
D|-2--/12v--2--/12v----12v--|
A|-2--------2---------------|
E|-0--------0---------------|

Chorus:
Guitar 1
e|----------------------------|
B|----------------------------|
G|----------------------------|
D|-2-2-2--5-5-5--8-8-8--7-7-7-| 3x
A|-2-2-2--5-5-5--8-8-8--7-7-7-|
E|-0-0-0--3-3-3--6-6-6--5-5-5-|

Guitar 2
e|----------------------------|
B|------------------3-3---2---|
G|------------------3-3---2---|
D|------------------3-3---2---| 3x
A|----------------------------|
E|----------------------------|

Guitar 1
e|----------------------------|
B|----------------------------|
G|----------------------------|
D|-2-2-2--5-5-5--8-8-8--7-7-7-|
A|-2-2-2--5-5-5--8-8-8--7-7-7-|
E|-0-0-0--3-3-3--6-6-6--5-5-5-|

Guitar 2
e|----------------------------|
B|-2-2-2--3-2-2-3-2-2-3-2-2-3-|
G|-2-2-2--3-2-2-3-2-2-3-2-2-3-|
D|-2-2-2--3-2-2-3-2-2-3-2-2-3-|
A|----------------------------|
E|----------------------------|

Verse:
Guitar 1
e|--------------------------|
B|--------------------------|
G|--------------------------|
D|-2------------------------| 3x
A|-2------------------------|
E|-0------------------------|

Guitar 2
e|--------------------------|
B|---12/---0--3-3-3-2-2-2v--|
G|---12/---0--3-3-3-2-2-2v--|
D|---12/---0--3-3-3-2-2-2v--| 3x
A|--------------------------|
E|--------------------------|

Guitar 1
e|------------------------------|
B|---------------------------0--|
G|---------------------------x--|
D|-2-------------------------2--|
A|-2-------------------------2--|
E|-0-------------------------0--|

Guitar 2
e|------------------------------|
B|---12/---0--3-3-3-2-2-2v------|
G|---12/---0--3-3-3-2-2-2v------|
D|---12/---0--3-3-3-2-2-2v------|
A|------------------------------|
E|------------------------------|

Chorus:
Guitar 1
e|----------------------------|
B|----------------------------|
G|----------------------------|
D|-2-2-2--5-5-5--8-8-8--7-7-7-| 3x
A|-2-2-2--5-5-5--8-8-8--7-7-7-|
E|-0-0-0--3-3-3--6-6-6--5-5-5-|

Guitar 2
e|----------------------------|
B|------------------3-3---2---|
G|------------------3-3---2---|
D|------------------3-3---2---| 3x
A|----------------------------|
E|----------------------------|

Guitar 1
e|----------------------------|
B|----------------------------|
G|----------------------------|
D|-2-2-2--5-5-5--8-8-8--7-7-7-|
A|-2-2-2--5-5-5--8-8-8--7-7-7-|
E|-0-0-0--3-3-3--6-6-6--5-5-5-|

Guitar 2
e|----------------------------|
B|-2-2-2--3-2-2-3-2-2-3-2-2-3-|
G|-2-2-2--3-2-2-3-2-2-3-2-2-3-|
D|-2-2-2--3-2-2-3-2-2-3-2-2-3-|
A|----------------------------|
E|----------------------------|

Bridge:
Guitar 1
e|--------------------------|
B|-0--/12v--0----------12v--|
G|-x--/12v--x-------12-12v--|
D|-2--/12v--2--/12v----12v--| 2x
A|-2--------2---------------|
E|-0--------0---------------|

Guitar 2
e|--------------------------|
B|---12/---0--3-3-3-2-2-2v--|
G|---12/---0--3-3-3-2-2-2v--|
D|---12/---0--3-3-3-2-2-2v--| 2x
A|--------------------------|
E|--------------------------|

Verse:
Guitar 1
e|--------------------------|
B|--------------------------|
G|--------------------------|
D|-2------------------------| 3x
A|-2------------------------|
E|-0------------------------|

Guitar 2
e|--------------------------|
B|---12/---0--3-3-3-2-2-2v--|
G|---12/---0--3-3-3-2-2-2v--|
D|---12/---0--3-3-3-2-2-2v--| 3x
A|--------------------------|
E|--------------------------|


Guitar 1
e|------------------------------|
B|---------------------------0--|
G|---------------------------x--|
D|-2-------------------------2--|
A|-2-------------------------2--|
E|-0-------------------------0--|
[ Tab from: http://www.guitartabs.cc/tabs/v/von_bondies/sound_of_terror_tab.html ]
Guitar 2
e|------------------------------|
B|---12/---0--3-3-3-2-2-2v------|
G|---12/---0--3-3-3-2-2-2v------|
D|---12/---0--3-3-3-2-2-2v------|
A|------------------------------|
E|------------------------------|

Chorus:
Guitar 1
e|----------------------------|
B|----------------------------|
G|----------------------------|
D|-2-2-2--5-5-5--8-8-8--7-7-7-| 3x
A|-2-2-2--5-5-5--8-8-8--7-7-7-|
E|-0-0-0--3-3-3--6-6-6--5-5-5-|

Guitar 2
e|----------------------------|
B|------------------3-3---2---|
G|------------------3-3---2---|
D|------------------3-3---2---| 3x
A|----------------------------|
E|----------------------------|


Guitar 1
e|----------------------------|
B|----------------------------|
G|----------------------------|
D|-2-2-2--5-5-5--8-8-8--7-7-7-| 4x
A|-2-2-2--5-5-5--8-8-8--7-7-7-|
E|-0-0-0--3-3-3--6-6-6--5-5-5-|

Guitar 2
e|----------------------------|
B|------------------------12v-|
G|------------------------12v-|
D|------------------------12v-| 4x
A|----------------------------|
E|----------------------------|

Solo
Guitar 1
e|-------------------------|
B|---15---------15---------|
G|---14B--------14B--------|
D|-------------------------|
A|-------------------------|
E|-------------------------|

Guitar 2
e|-------------------------|
B|---12/---0--3-3-3-2-2-2v-|
G|---12/---0--3-3-3-2-2-2v-|
D|---12/---0--3-3-3-2-2-2v-|
A|-------------------------|
E|-------------------------|

Guitar 1
e|-------------------------|
B|---15----15-----15----15-|
G|---14B---14B----14B---14B|
D|-------------------------|
A|-------------------------|
E|-------------------------|

Guitar 2
e|-------------------------|
B|---12/---0--3-3-3-2-2-2v-|
G|---12/---0--3-3-3-2-2-2v-|
D|---12/---0--3-3-3-2-2-2v-|
A|-------------------------|
E|-------------------------|

Guitar 1
e|-------------------------|
B|-------------------------|
G|---14B-14B-14B-14B-14-14-|
D|-------------------------|
A|-------------------------|
E|-------------------------|

Guitar 2
e|-------------------------|
B|---12/---0--3-3-3-2-2-2v-|
G|---12/---0--3-3-3-2-2-2v-|
D|---12/---0--3-3-3-2-2-2v-|
A|-------------------------|
E|-------------------------|

Guitar 1
e|-------------------------|
B|-------------------------|
G|-------------------------|
D|--14-14-14-14------------|
A|--------------14-14------|
E|-------------------------|

Guitar 2
e|-------------------------|
B|---12/---0--3-3-3-2-2-2v-|
G|---12/---0--3-3-3-2-2-2v-|
D|---12/---0--3-3-3-2-2-2v-|
A|-------------------------|
E|-------------------------|

Guitar 1
e|-------------------------|
B|-------------------------|
G|-------------------------|
D|14---14--14-14---14--14--|
A|--14---14-----14---14----|
E|-------------------------|

Guitar 2
e|-------------------------|
B|---12/---0--3-3-3-2-2-2v-|
G|---12/---0--3-3-3-2-2-2v-|
D|---12/---0--3-3-3-2-2-2v-|
A|-------------------------|
E|-------------------------|

Guitar 1
e|-------------------------|
B|-------------------------|
G|-------------------------|
D|----14B-14B-14B-14-14----|
A|-------------------------|
E|-------------------------|

Guitar 2
e|-------------------------|
B|---12/---0--3-3-3-2-2-2v-|
G|---12/---0--3-3-3-2-2-2v-|
D|---12/---0--3-3-3-2-2-2v-|
A|-------------------------|
E|-------------------------|

Guitar 1
e|-------------------------|
B|-------------------------|
G|-------------------------|
D|14---14--14-14---14--14--|
A|--14---14-----14---14----|
E|-------------------------|

Guitar 2
e|-------------------------|
B|---12/---0--3-3-3-2-2-2v-|
G|---12/---0--3-3-3-2-2-2v-|
D|---12/---0--3-3-3-2-2-2v-|
A|-------------------------|
E|-------------------------|

Chorus:
Guitar 1
e|----------------------------|
B|----------------------------|
G|----------------------------|
D|-2-2-2--5-5-5--8-8-8--7-7-7-| 5x
A|-2-2-2--5-5-5--8-8-8--7-7-7-|
E|-0-0-0--3-3-3--6-6-6--5-5-5-|

Guitar 2
e|----------------------------|
B|------------------3-3---2---|
G|------------------3-3---2---|
D|------------------3-3---2---| 5x
A|----------------------------|
E|----------------------------|

Bridge:
Guitar 1
e|--------------------------|
B|-0--/12v--0----------12v--|
G|-x--/12v--x-------12-12v--|
D|-2--/12v--2--/12v----12v--|
A|-2--------2---------------|
E|-0--------0---------------|

e|--------------------------|
B|-0--/12v--0----------0----|
G|-x--/12v--x----------x----|
D|-2--/12v--2---2------2----|
A|-2--------2----2-----2----|
E|-0--------0------3-2-0----|


Lyrics:
I'm a fly on flypaper
You're the rain on the web
Resurrected by demons
All shouting in my head

It's the lifeboat of sanity
A beacon in the dark
Let all hell's fury
Play the rhythm of your heart

It's the sound of terror
It's the sound of terror

It sleeps with the fear
All burrowing under your bed
Waiting for a signal
To bring this nightmare to and end

It's an affair of honor
Taken too far
Let's burn down Saint Peter's
And drive a stake through its heart

It's the sound of terror
It's the sound of terror

so thats it!!!
Enjoy- Dan Steadman
Comments