Von Bondies - Not That Social Chords & Tabs

 

Not That Social Chords & Tabs

Von Bondies Chords & Tabs

Version: 1 Type: Bass Tab

Not That Social Bass Tab

   
----------------------------------------------------------------------------
		       NOT THAT SOCIAL - Von Bondies
----------------------------------------------------------------------------

Tabbed By : tomj_bassfreak
e-mail: tomj92@msn.com

Tuning:normal

G|--------------------------------------------------------------------------|
D|--------------------------------------------------------------------------|
A|-------------------------------3-3--3-3--3-3--3-3--3-3--3-3--3-3--3-3-----|
E|-0~~~~~~~~~~--0~~~~~~~~~~~~~----------------------------------------------|

-----------------------------------------------------------------------------|
-----------------------------------------------------------------------------|
3-3--3-3--3-3--3-3--3-3--3-3--3-3--3-3--------------------3-3--3-3--3-3--3-3-|
---------------------------------------3-3--3-3--4-4--5-5--------------------|
__________________________________________________________________________x2

----------------------------------------------------------------------------|
----------------------------------------------------------------------------|
----------------------------------------------------------------------------|
-0000000000000000--00000000000044445555555555555555-------------------------|
                   ______________________________x2

-----------------------------------------------------------------------------|
-----------------------------------------------------------------------------|
3-3--3-3--3-3--3-3--3-3--3-3--3-3--3-3--------------------3-3--3-3--3-3--3-3-|
---------------------------------------3-3--3-3--4-4--5-5--------------------|
__________________________________________________________________________x2
[ Tab from: http://www.guitartabs.cc/tabs/v/von_bondies/not_that_social_btab.html ]
----------------------------------------------------------------------------|
----------------------------------------------------------------------------|
----------------------------------------------------------------------------|
-0000000000000000--00000000000044445555555555555555-------------------------|
                   ______________________________x2

-----------------------------------------------------------------------------|
-----------------------------------------------------------------------------|
3-3--3-3--3-3--3-3--3-3--3-3--3-3--3-3-0-0--0-0--0-0--0-0--0-0--0-0--0-0-0-0-|
-----------------------------------------------------------------------------|
__________________________________________________________________________x2

----------------------------------------------------------------------------|
----------------------------------------------------------------------------|
-------------------3-3--3-3--3-3--3-3---------------------------------------|
-3---3---4-4--5-5----------------------3-3--3-3--3-3--3-3-------------------|
___________________________________x2

----------------------------------------------------------------------------|
----------------------------------------------------------------------------|
-3-3--3-3--3-3--3-3---------------------------------------------------------|
------------------3-3--3-3--4-4--5-5----------------------------------------|
______________x6
__________________________________x2

-----------------------------------------|
-----------------------------------------|
-3-3--3-3--3-3--3-3--3-3--3-3--3-3--3-3--| till fade...
-----------------------------------------|

| /  slide up
| \  slide down
| h  hammer-on
| p  pull-off
| ~  vibrato
| +  harmonic
| x  Mute note
===============================================================================