Von Bondies - No Regrets Chords & Tabs

 

No Regrets Chords & Tabs

Von Bondies Chords & Tabs

Version: 1 Type: Tab 0 ratings
1 star 2 stars 3 stars 4 stars 5 stars
comments

No Regrets Tab

   
Title: No regrets
Artist: The Von Bondies
Album: Pawn Shoppe Heart

Instrument: Guitar

Tabbed by: John Wika Haakseth (johnwika@gmail.com)

It's all here, I think. Just listen to song for the exact number of repeats and rhythm.

Yes, I have a blog, it's at http://milhouse86.blogspot.com

Tuning: Standard (E A D G B E)

Intro pt.1:
   E
E|--------------------||
B|--------------------||
G|--------~~~---------||
D|-2-----8/9~~~-------||
A|-2------~~~---------||
E|-0------------------|| x3
    let the e ring, quite possibly a second
    guitar doing the vibrating there...

Intro pt.2, and main riff:
   E                    f# E
E|--------------------------||
B|--------------------------||
G|--------------------------||  x3 in the intro
D|-2--2--2--2--2--2--2--24-2||  x7 in the verse
A|-2--2--2--2--2--2--2--24-2||  just listen to the record
E|-0--0--0--0--0--0--0--02-0||

[ Tab from: http://www.guitartabs.cc/tabs/v/von_bondies/no_regrets_tab.html ]
   B G A G   E            D d# E             B
E|---------|-------------|------------------------|
B|---------|-------------|------------------------|
G|-4---2---|-------------|-7-8-9--9--9--9--9/16---|
D|-4---2---|-2--2--2--22-|-7-8-9--9--9--9--9/16---|
A|-2---0---|-2--2--2--22-|-5-6-7--7--7--7--7/14---|
E|---3---3-|-0--0--0--00-|------------------------|
             1st time       2nd time         before the solo, it doesen't
                                             slide to the 14th fret like that
                                             it just holds the e for another bar

Solo-thingy:

E|------------------------------||
B|------------------------------||
G|------------------------------||
D|-------------17--15--14--13---||
A|-------------15--13--12--11---||
E|-/12--15-12-------------------|| x2

E|-----------------------------------||
B|-----------------------------------||
G|-----------------------12----14/15-||
D|--------------12----14----14-------||
A|--------12-14----14----------------||
E|-/12-15----------------------------|| x2
Comments