Von Bondies - Lack Of Communication Chords & Tabs

 

Lack Of Communication Chords & Tabs

Von Bondies Chords & Tabs

Version: 2 Type: Tab 0 ratings
1 star 2 stars 3 stars 4 stars 5 stars
comments

Lack Of Communication Tab

 I'm not to sure how the intro goes I think its something like this -

       E-------------------|
       B-------------------|
       G-------------------|
       D-------------------|
       A-3-2-0- x3 ---0----| x1
       E-----------3-2-----|

[ Tab from: http://www.guitartabs.cc/tabs/v/von_bondies/lack_of_communication_tab_ver_2.html ]
        The Main riff is-

        E----------------------------|
        B----------------------------|
        G---------5-5-7-5-7----------|
        D-7-7-5-5-5-5-7-5-7----------|
        A-7-7-5-5-3-3-5-3-5----------|
        E-5-5-3-3--------------------|

      Thats about it! This was my 1st tab YAY!
Comments