Von Bondies - It Came From Japan Chords & Tabs

 

It Came From Japan Chords & Tabs

Von Bondies Chords & Tabs

Version: 1 Type: Chords 0 ratings
1 star 2 stars 3 stars 4 stars 5 stars
comments

It Came From Japan Chords

   
-----------------------------------------------------------------------------
			     Von Bondies - It Came From Japan
-----------------------------------------------------------------------------
Tabbed by: useless_idiot
Email: lazystudentboy@hotmail.com


see them last and thought id post some chords on here seen as there arent that many

this is played through out the entire song (there were other little bits but i couldnt pick up on them)


Tuning: standard

with heavy distortion

structure:
Intro/verse x8
Chorus x2
Verse x4
Chorus x2
solo
verse x4
chorus x2
outro 

intro/verse

im not sure if the little riff it correct or not(but its close), but its played around
the B chord, im not sure if the nine in brackets is played i just put it in so you can
chose to play it if you want
[ Tab from: http://www.guitartabs.cc/tabs/v/von_bondies/it_came_from_japan_crd.html ]
        	  B				
e|----------------7-----------|
B|----------------7-----------|
G|-----8----------8-----------|
D|--(9)-7---------9-----------|
A|---9---7--------9-----------|
E|----------------7-----------|
          

Chorus
	 A	A	    B	     (A)
e|-------5------5-----------7--------(5)----|     
B|-------5------5-----------7--------(5)----|     
G|-------6------6-----------8--------(6)----|     
D|-------7------7-----------9--------(7)----| x2  
A|-------7------7-----------9--------(7)----|     
E|-------5------5-----------7--------(5)----|          
      (down) (down)		    (down)

the A in brackets is only played once at the end of the solo before the verse starts again


Solo

whilst jason is playing the solo marcie just plays the verse(x4) and chorus(x2)


outro

its just B with jason playing a different riff
Comments