Von Bondies - Cmon Cmon Chords & Tabs

 

Cmon Cmon Chords & Tabs

Von Bondies Chords & Tabs

Version: 4 Type: Bass Tab 0 ratings
1 star 2 stars 3 stars 4 stars 5 stars
comments

Cmon Cmon Bass Tab

C'mon C'mon - The Von Bondies

Tabbed by: Elias Allanby	
Email: lpaustralia@hotmail.com or blinkme_elias2002@yahoo.com.au


Guitar Intro

VERSE 1 
G|-------------|
D|-------------|
A|-2-33--5-77--| ( X 1 )
E|-------------|

G|------------------------|
D|------------------------|
A|-2-33--5-77-------------|  ( X 2 )
E|-------------3-55--3-55-|

G|------------------------------------------------|
D|------------------------------------------------|
A|-2-33--5-77--------------------------7-77--7-77-|  ( X 1 )
E|-------------3-55--3-55--3-11--1-33-------------|

G|------------------------|
D|------------------------|
A|-2-33--5-77-------------|  ( X 2 )
E|-------------3-55--3-55-|

G|------------------------------------------------|
D|------------------------------------------------|
A|-2-33--5-77--------------------------7-77--7-77-|  ( X 1 )
E|-------------3-55--3-55--3-11--1-33-------------|


CHORUS
G|---------------------------|
D|---------------------------|
A|-2-333--5-777--------------|  ( X 2 )
E|--------------3-555--3-555-|

G|------------------------------------------------------|
D|------------------------------------------------------|
A|-2-333--5-777------------------------------7777--7777-|  ( X 1 )
E|---------------3-555--3-555--3-111--1-333-------------|


Bridge Thing
G|------------------------|
D|------------------------|
A|-2-33--5-77-------------|  ( X 2 )
E|-------------3-55--3-55-|
[ Tab from: http://www.guitartabs.cc/tabs/v/von_bondies/cmon_cmon_btab_ver_4.html ]
G|------------------------------------------------|
D|------------------------------------------------|
A|-2-33--5-77--------------------------7-77--7-77-|  ( X 1 )
E|-------------3-55--3-55--3-11--1-33-------------|


Verse 2 ( X 2 )
G|------------------------|
D|------------------------|
A|-2-33--5-77-------------|  ( X 2 )
E|-------------3-55--3-55-|

G|------------------------------------------------|
D|------------------------------------------------|
A|-2-33--5-77--------------------------7-77--7-77-|  ( X 1 )
E|-------------3-55--3-55--3-11--1-33-------------|


CHORUS ( x 2 )
G|---------------------------|
D|---------------------------|
A|-2-333--5-777--------------|  ( X 2 )
E|--------------3-555--3-555-|

G|-------------------------------------------------------|
D|-------------------------------------------------------|
A|-2-333--5-777------------------------------7-777--7777-|  ( X 1 )
E|---------------3-555--3-555--3-111--1-333--------------|


OUTRO
G|------------------------|
D|------------------------|
A|-2-33--5-77-------------|  ( X 2 )
E|-------------3-55--3-55-|

G|------------------------------------------------|
D|------------------------------------------------|
A|-2-33--5-77--------------------------7-77--7-77-|  ( X 1 )
E|-------------3-55--3-55--3-11--1-33-------------|

G|------------------|
D|------------------|
A|-2-33--5-77-------|  ( X 1 )
E|-------------3-55-|

www.freewebs.com/thenumlocks
Comments