Volbeat - Cape Of Our Hero Chords & Tabs

 

Cape Of Our Hero Chords & Tabs

Volbeat Chords & Tabs

Version: 3 Type: Tab 0 ratings
1 star 2 stars 3 stars 4 stars 5 stars
comments

Cape Of Our Hero Tab

   
Artist: Volbeat
Song: Cape Of Our Hero

Hi im Christian from "Christians How To Plays"
These Chords/Tabs are 100% correct. 
To learn the Song with my Video Lesson, please follow the link :) 
http://www.youtube.com/watch?v=x_7zrkHW1EU
Now, have fun with the Song and the Tabs: 


Intro:

Am F G Em
Am F G Em
C G Am F C

2x:
      Am                       F                           
      Q     E  Q    Q.         Q     E  E  E  E  S  S  E   
E||-------------------------|-----------------------------|
B||-------------------------|-----------------------------|
G||---------9--7----9~------|--L----10--9--7--7--7h-9p-7--|
D||--10~--------------------|-----------------------------|
A||-------------------------|-----------------------------|
E||-------------------------|-----------------------------|


  G                             Em                        
  Q     E   E  E  E.  S  E      Q    Q    E   E.  S   E   
----------------------------|----------------------------|
----------------------------|----------------------------|
--L~----7-------------------|----------------------------|
-----------10--9--9---9-10--|--14----9----9--10---9h-10--|
----------------------------|----------------------------|
----------------------------|----------------------------|


1x:

                         G                      
  H         E  Q      E     H          Q     Q     
-------------------------|------------------------|
-------------------------|------------------------|
--9~--------L--7~--------|--7~--------------------|
---------------------10--|------------10~----9----|
-------------------------|------------------------|
-------------------------|------------------------|


Am                            F                            C                 
                                                              3                 
   Q     E  E    E  Q    S  S    Q    E.  S S  S Q    S  S    W.                
------------------------------|----------------------------|-------------------|
------------------------------|----------------------------|-------------------|
------------7--7g9--7---------|--5----5---5-5h-7-5----5h-7-|--5----------------|
--10----10---------------5h-7-|----------------------------|-------------------|
------------------------------|----------------------------|-------------------|
------------------------------|----------------------------|-------------------|

Verse: 

C                              F
All of the perfection nothing will and can be made
     Dm                              G
the old skin has to shed before the new one sees the day
C                                  F
opportunities to find the deeper powers in ourselves
                      Dm              G
come when life is breathing and seem more than what it is
F               G
Go blindly completely!


Chorus:
[ Tab from: http://www.guitartabs.cc/tabs/v/volbeat/cape_of_our_hero_tab_ver_3.html ]
C            F         Dm
You tell me how I can fly away
       G
and believe that all the angels are coming
C              F               Dm
you bring me down then I will fly again
       G                               Am
and believe that all the angels are coming!

Clean Chorus Guitar

{e| |----------------|----------------|----------------|-------------------|
{B| |------5-6-5-----|------5-6-5-----|-----6-8-6------|-----5-6-5---------|
{G| |---5------------|----5-----------|---5------------|---7---------------|
{D| |----------------|----------------|----------------|-------------------|    x2
{A| |----------------|----------------|----------------|-------------------|
{E| |----------------|----------------|----------------|-------------------|


Intro Bridge:

Am F G Em

Play First Part of Melodie Guitar


Verse: 

       C                              F
The kingdom of the fathers and the heroes where are you
       Dm                       G
I'm talking to you every night more than I should do
       C                 
what awaits and when will be the day
     F
when I can wear the cape
      Dm                             G
I'm lying on the ground as always staring into the air
F              G
Go blindly completely!


Chorus:
C            F         Dm
You tell me how I can fly away
       G
and believe that all the angels are coming
C              F               Dm
you bring me down then I will fly again
       G                               Am
and believe that all the angels are coming! Zah, ah, ah


Bridge: 

Am  F  D  G(halftime)C Em

{e| |----------------------|
{B| |--6h5------------6h5--|
{G| |--------5-7---5------5|    x3
{D| |----------------------|
{A| |----------------------|
{E| |----------------------|

{e| |-------------------|
{B| |---------6--5------|
{G| |--7~--5--------4---|
{D| |-------------------|
{A| |-------------------|
{E| |-------------------|


A                            F                    Dm        
The stars are long gone but we can still see their glow
             G (halftime)            C                E
long after they've skidded off into oblivion!

No CHORDS                        
You tell me how... I can fly away...
       Dm                            C
and believe that all of the angels are coming
             F                 Dm
you bring me down, then I will fly again
       G
and believe that all of the angels coming!




Chorus:

C            F          Dm
You tell me how, I can fly away
       G                                     C
and believe that all of the angels are coming
              F                 Dm
you bring me down, then I will fly again
       G                                  Am
and believe that all of the angels are coming!

Outro: 

Am F G Em
Am F G Em

Play First Part of Intro
Play Clean Guitar of Bridge 


END
Comments