Volante Nyoy - Kahit Kailan Chords & Tabs

 

Kahit Kailan Chords & Tabs

Volante Nyoy Chords & Tabs

Version: 1 Type: Tab 0 ratings
1 star 2 stars 3 stars 4 stars 5 stars
comments

Kahit Kailan Tab

KAHIT KAILAN
Nyoy Volante

johnsantos_17@yahoo.com

Standard tuning: (EADGBE)

Intro:

E-4----4sl/5-4-0------2-|------2--0----2-2-
B-2-2----------0------2-|--2-----0---2--0--
G-2--2----------------2-|--2---2-----------
D-2------------------4--|----4-------------
A-0-----------------4---|--4---------4-----
E-----------------2-----|------------------

E-4----4sl/5-4-0------2-|------2--0-----
B-2-2----------0------2-|--2-----0---2--
G-2--2----------------2-|--2---2--------
D-2------------------4--|----4----------
A-0-----------------4---|--4---------4--
E-----------------2-----|---------------

Verse:

E------------|-------4h5p4------|----0-----
B-0--0--0--0-|------5-----5---2-|-3--0-------
G-2--2--2--2-|-----4-------4--2-|-2--1------
D-2--2--2--2-|----6-----------2-|-4--2-------
A-0-----0----|-0-4------------4-|-2--2--------
E----2-----2-|------------------|----0--------
[ Tab from: http://www.guitartabs.cc/tabs/v/volante_nyoy/kahit_kailan_tab.html ]
E------------|-------4h5p4------|----0-----
B-0--0--0--0-|------5-----5---2-|-3--0-------
G-2--2--2--2-|-----4-------4--2-|-0--1------
D-2--2--2--2-|----6-----------2-|-0--2-------
A-0-----0----|-0-4------------4-|-2--2--------
E----2-----2-|------------------|-3--0--------

Pre-chorus:

E------------
B-1--1--1--0-
G-2--0--2--1-
D-3--2--3--2-
A-3--3--3--2-
E-1--0--1--0-

Chorus:

E-4----4sl/5-4-0------2-|--2---
B-2-2----------0------2-|--2----
G-2--2----------------2-|--2----
D-2------------------4--|--0-----
A-0-----------------4---|------
E-----------------2-----|-----

E-4----4sl/5-4-0------2-|--2---
B-2-2----------0------2-|--2--0--
G-2--2----------------2-|--2--1--
D-2------------------4--|--0-----
A-0-----------------4---|-------
E-----------------2-----|-----0-

E-4----4sl/5-4-0------2-|-----
B-2-2----------0------2-|--0----
G-2--2----------------2-|--1---
D-2------------------4--|--2-----
A-0-----------------4---|--2----
E-----------------2-----|--0---

=====()w&_17=====
Comments