Vlatko Stefanovski - Kaladzijsko Kolo Chords & Tabs

 

Kaladzijsko Kolo Chords & Tabs

Vlatko Stefanovski Chords & Tabs

Version: 1 Type: Tab 0 ratings
1 star 2 stars 3 stars 4 stars 5 stars
comments

Kaladzijsko Kolo Tab

Artist: Vlatko Stefanovski
Song: Kaladzijsko kolo

Time signature: 11/18
Tempo: 140 bpm

Figure 1:

3x
e-------------------------------------------------
b-----------------------8-7-5-7------------------
g----6h7-7---7----7-----------------------------
d-----------7----7--------------------------------
a--------------------------------------------------
e--------------------------------------------------


e-------------------------------------------------
b-------------------------------------------------
g----6h7-7---7----7---7--(let ring)------------
d-----------7----7------7--(let ring)------------
a-------------------------------------------------
e-------------------------------------------------

Figure 2:

3x
e-------------------------------------------------
b-----12-10-12-10-12b-10-12-10-------------
g--------------------------------------12-11----
d-------------------------------------------------
a-------------------------------------------------
e-------------------------------------------------

e-------------------------------------------------
b-------------------------------------------------
g----6h7-7---7----7---7--(let ring)------------
d-----------7----7------7--(let ring)------------
a-------------------------------------------------
e-------------------------------------------------

Figure 3(100bpm):

3x
e-------------------------------------------------
b-------------------------------------------------
g----6h7-7---7----7---9--8--7--8--------------
d----------7---7----7----------------------------
a-------------------------------------------------
e-------------------------------------------------

e-------------------------------------------------
b-------------------------------------------------
g----6h7-7---7----7---7(let ring)--------------
d----------7---7----7---7(let ring)-------------
a-------------------------------------------------
e-------------------------------------------------

Figure 4(240bpm): 

3x
e-------------------------------------------------
b-------------------------------------------------
g----13-13h14------------14-13---------------
d----------------12-15-12--------15-14-12----
a-------------------------------------------------
e-------------------------------------------------

e-------------------------------------------------
b-------------------------------------------------
g----6h7-7---7----7---7--(let ring)------------
d-----------7----7------7--(let ring)------------
a-------------------------------------------------
e-------------------------------------------------

Figure 5(240bpm):

3x
e-------------------------------------------------
b---8h9-9----7---------8h9-9------------------
g-----------9----11--9----------9---------------
d-------------------------------------------------
a-------------------------------------------------
e-------------------------------------------------

e-------------------------------------------------
b---8h9-9----10-9-7----------------------------
g-----------9----------9-------------------------
d-------------------------------------------------
a-------------------------------------------------
e-------------------------------------------------

Figure 6(240bpm)
[ Tab from: http://www.guitartabs.cc/tabs/v/vlatko_stefanovski/kaladzijsko_kolo_tab.html ]
e-------------------------------------------------
b---------------------------------12h13p12-----
g---15p14p12-----12h14h15-------------------
d---------------14-------------------------------
a-------------------------------------------------
e-------------------------------------------------

e-------------------------------------------------
b-------------------------------12h13p0h13p12
g--15p14p12-----12h14h15-------------------
d--------------14--------------------------------
a-------------------------------------------------
e-------------------------------------------------

e---------------------------------12---------------
b--------------------------------------12h14(trill)
g---15p14p12-----12h14h15--------------------
d---------------14--------------------------------
a--------------------------------------------------
e--------------------------------------------------

e-------------------------------------------------
b-------------------------------------------------
g---15p12-12-12/7-7-7h9p7/5-5-5h7p5------
d---------------14-------------------------------
a-------------------------------------------------
e-------------------------------------------------

Figure 7(240bpm):

2x
e--12-12-12-12-15p14p12-15p13p12--------
b-------------------------------------------------
g-------------------------------------------------
d-------------------------------------------------
a-------------------------------------------------
e-------------------------------------------------

e--12-12-12-12/15-19p17p15-19p17p15----
b-------------------------------------------------
g-------------------------------------------------
d-------------------------------------------------
a-------------------------------------------------
e-------------------------------------------------

2x
e--12-12-12-12-15p14p12-15p13p12--------
b-------------------------------------------------
g-------------------------------------------------
d-------------------------------------------------
a-------------------------------------------------
e-------------------------------------------------

e-------------------------------------------------
b--15p12h15-15/17----------------------------
g-------------------------------------------------
d-------------------------------------------------
a-------------------------------------------------
e-------------------------------------------------

Figure 8(240bpm)


e-------------------------------------------------
b---------------------------------12h13p12-----
g---15p14p12-----12h14h15-------------------
d---------------14-------------------------------
a-------------------------------------------------
e-------------------------------------------------

e-------------------------------------------------
b-------------------------------12h13p0h13p12
g--15p14p12-----12h14h15-------------------
d--------------14--------------------------------
a-------------------------------------------------
e-------------------------------------------------

e---------------------------------12---------------
b--------------------------------------12h14(trill)
g---15p14p12-----12h14h15--------------------
d---------------14--------------------------------
a--------------------------------------------------
e--------------------------------------------------

e-------------------------------------------------
b-------------------------------------------------
g----6h7-7---7----7---7--(let ring)------------
d-----------7----7------7--(let ring)------------
a-------------------------------------------------
e-------------------------------------------------

Figure 1(2x)
Figure 2
Figure 1(2x)
Figure 3
Figure 1(2x)
Figure 2
Figure 1(2x)
Figure 4(2x)
Figure 5
Figure 6(2x)
Figure 7(2x)
Figure 6(2x)
Figure 1(2x)

(tabbed by Luka T..)
Comments