Vital Remains - Dechristanize Chords & Tabs

 

Dechristanize Chords & Tabs

Vital Remains Chords & Tabs

Version: 1 Type: Bass Tab 0 ratings
1 star 2 stars 3 stars 4 stars 5 stars
comments

Dechristanize Bass Tab

tune bass down a hole step

play with pick

intro
F---------------------------------|
C---10-9-7----------10-9-7--------|
G----------10-9-7----------10-9-7-|
D-0---------------0---------------|

---------------------------------|
---------------------------------|
---------------------------------|
0-2-3-5-3-2----------------------|

the intro is played in other prats of the song to.
[ Tab from: http://www.guitartabs.cc/tabs/v/vital_remains/dechristanize_btab.html ]
where the lead singer first strarts singing
--------------------------------|
--------------------------------|
--------------------------------|
--0----13-12-10-13-12-10-8-7-5--|

chorus
-----------------------|
--5-4-2----------------|
--------5-4-2----------|
0----------------------|

----------------------------|
---------5-4-2--------------|
---------------5-4-2--------|
0-0-0-0---------------------|

under the fast guitar soloing you just play open notes on the top string


under melodic soloing

--------------------------------------|
--------------------------------------|
--------------------------------------|
0-1-1-1-1-1-1-1-----------------------|
Comments