Vision Of Disorder - 7 Chords & Tabs

 

7 Chords & Tabs

Vision Of Disorder Chords & Tabs

Version: 1 Type: Tab 0 ratings
1 star 2 stars 3 stars 4 stars 5 stars
comments

7 Tab

   
#----------------------------------PLEASE NOTE---------------------------------#
#This file is the author's own work and represents their interpretation of the #
#song. You may only use this file for private study, scholarship, or research. #
#------------------------------------------------------------------------------#
#

Date: Tue, 02 Dec 1997 02:16:35 -0500
From: "Jeffrey J. Davis" 
To: guitar@olga.net
Subject: Tab: 7/13 by Vision of Disorder

                                     7/13
                            by Vision Of Disorder
                              Tab by Jeff Davis
                        (jdavis3@pigseye.kennesaw.edu)

Tune all strings down a whole step

! - accent(pick harder)
1 2 3 4 - down beats
/, \ - slides


      1      2     3      4
D|------------------------------|
A|------------------------------|
F|------------------------------|
C|----9--10--9------------------|
G|----7--8---7-----10--9--7--9--|
D|--------------0--8---7--5--7--|


                                     !     !     !     !     !
    1 2 3 4    1 2 3 4    1 2 3 4    1       2       3       4
D|-----------|----------|---------|----------------------------------|
A|-----------|----------|---------|----------------------------------|
F|-----------|-5--------|-2-------|----------------------------------|
C|--2--------|-5--------|-2-------|----------------------------------|
G|--2--------|-3--------|-0-------|----------------------------------|
D|--0--------|-0--------|-0-------|--0-0-0-0-0-0-0-0-0-0-0-0-0-0-0-0-|
 |           |          |         |                                  |
 |           |          |         |                                  |
D|-----------|----------|---------|----------------------------------|
A|-----------|----------|---------|----------------------------------|
F|-----------|----------|---------|----------------------------------|
C|-----------|-5------5-|-2-------|----------------------------------|
G|--2------2-|-3------3-|-0-------|----------------------------------|
D|--0------0-|----------|---------|----------------------------------|


    1 2 3 4    1 2 3 4    1 2 3 4    1       2       3       4
D|-----------|----------|---------|----------------------------------|
A|-----------|----------|---------|----------------------------------|
F|-----------|-5--------|-2-------|----------------------------------|
C|--2--------|-5--------|-2-------|--2---2---2---2---2---2---2---2---|
G|--2--------|-3--------|-0-------|--0---0---0---0---0---0---0---0---|
D|--0--------|-0--------|-0-------|----------------------------------|
 |
 |
D|-----------|----------|---------|----------------------------------|
A|-----------|----------|---------|----------------------------------|
F|-----------|----------|---------|----------------------------------|
C|-----------|-5------5-|-2-------|--2---2---2---2---2---2---2---2---|
G|--2------2-|-3------3-|-0-------|--0---0---0---0---0---0---0---0---|
D|--0------0-|----------|---------|----------------------------------|


    1        2       3        4
D|-------------------------------------|
A|-------------------------------------|
F|-------------------------------------|
C|-------------------------------------|
G|-------------------------------------|
D|--0-0-0-0-/7--10---0-0-/9---12--\9---|


(harmony part: Gtr 2)
    1        2       3        4
D|-------------------------------------|
A|-------------------------------------|
F|-------------------------------------|
C|-------------------------------------|
G|--------------10------------12--\9---|
D|--0-0-0-0-/7-------0-0-/9------------|


*half time feal  (beat is half as fast as before)

    WINDSHIELD!!!!!!!!!!!!!!

    1       2       3         4
D|-------------------------------------|
A|-------------------------------------|
F|-------------------------------------|
C|-------------------------------------|
G|--7-7-7-7-8-8-8-8-5-5-10-10-9-9-8-8--|
D|--5-5-5-5-6-6-6-6-3-3-8--8--7-7-6-6--|


    1 e & a 2 e & a 3 e & a 4 e & a   1 e & a 2 e & a 3 e & a 4 e & a
D|----------------------------------|---------------------------------|
A|----------------------------------|---------------------------------|
F|----------------------------------|---------------------------------|
C|----------------------------------|---------------------------------|
G|--2---2---------2-2---2-------2-2-|-----2---------------5/6---5/6---|
D|--0---0---------0-0---0-------0-0-|-----0-----------0-0-3/4-0-3/4---|


[ Tab from: http://www.guitartabs.cc/tabs/v/vision_of_disorder/7_tab.html ]
    1       2         3     4         1   &   2       3       4
D|----------------------------------|---------------------------------|
A|----------------------------------|---------------------------------|
F|--------------------------5-------|---------------------------------|
C|-----------------------5--------5-|-2---2---------------------------|
G|--2---2---------2-2/3-----------3-|-0---0---------------------------|
D|--0---0---------0-----------------|---------------------------------|
 |                                  |                                 |
 |                                  |                                 |
D|----------------------------------|---------------------------------|
A|----------------------------------|---------------------------------|
F|----------------------------------|------------------2nd-time-only--|
C|--------------------5--5--------3-|-2---2---------------------------|
G|--2---2-------------3--3--------5-|-0---0----------(0-0-0-0-0-0-0-0)|
D|--0---0---------------------------|---------------------------------|



  repeat verse

                                   !     !     !     !     !
    1 2 3 4   1 2 3 4   1 2 3 4    1       2       3       4
D|----------|---------|---------|----------------------------------|
A|----------|---------|---------|----------------------------------|
F|----------|---------|---------|----------------------------------|
C|----------|---------|---------|----------------------------------|
G|--2-------|-2-------|-2-------|----------------------------------|
D|--0-------|-0-------|-0-------|--0-0-0-0-0-0-0-0-0-0-0-0-0-0-0-0-|
 |          |         |         |                                  |
 |          |         |         |                                  |
D|----------|---------|---------|----------------------------------|
A|----------|---------|---------|----------------------------------|
F|----------|---------|---------|----------------------------------|
C|----------|-5-------|-2-------|----------------------------------|
G|--2-------|-3-------|-0-------|----------------------------------|
D|--0-------|---------|---------|----------------------------------|


    1 2 3 4     1 2 3 4     1 2 3 4    1       2       3       4
D|------------|-----------|---------|----------------------------------|

A|------------|-----------|---------|----------------------------------|

F|----------h-|p--------h-|p--------|----------------------------------|

C|--2------2^3|^2------2^3|^2-------|--2---2---2---2---2---2---2---2---|

G|------------|-----------|---------|--0---0---0---0---0---0---0---0---|

D|------------|-----------|---------|----------------------------------|

 |
 |
D|------------|-----------|---------|----------------------------------|

A|------------|-----------|---------|----------------------------------|

F|------------|-----------|---------|----------------------------------|

C|--9------9-\|-5------5-/|-7-------|--2---2---2---2---2---2---2---2---|

G|------------|-----------|---------|--0---0---0---0---0---0---0---0---|

D|------------|-----------|---------|----------------------------------|



  repeat stuff


    1       2       3       4         1       2       3       4
D|----------------------------------|----------------------------------|

A|----------------------------------|----------------------------------|

F|----------------------------------|----------------------------------|

C|----------------------------------|----------------------------------|

G|--7-7-7---7-8-7---7-7-7---7-8-7---|-7-7-7---7-8-7-----7-----7\5------|

D|--5-5-5-0-5-6-5-0-5-5-5-0-5-6-5-0-|-5-5-5-0-5-6-5-0-5-5---5-5\3------|



Here's my stab at the lyrics.  If anybody has these lyrics please e-mail
me.

7/13

I felt remorse
I felt disgust
I saw your face,
(opening up?)
Upon that highway
(I ? my ?)
On that highway
that took my life.

Here we will destroy
Visions of our demise

?
?
For words that ?
And words I felt
I saw the face
Without a name
I knew the name
I felt disgrace

Here this is the end
Visions of our demise
Jesus Please!...

Windshield!!!
I know no one now.
Windshield
A windshield took me away from my family
I don't want you
I don't need you
inside my fucking face now
This windshield

And no one can know me
A place where I fuck up alone
well it will kill you
well it will kill me
Don't tell me a way to live in this life.
My pain
and my life
is one thing that I'll never forget.
?
?
Just take me away from this place.
(It's time to bleed?)

There was no pain
There was no time
without a (faith?)
we broke the line
Yellow Red
the devil (did?)
?
?

Here we will destroy
Visions of our demise
Jesus Please!...

Windshield!!!
I know no one now.
Windshield
A windshield took me away from my family
I don't want you
I don't need you
inside my fucking face now
This windshield.




Comments