Virus - Rats In The City Chords & Tabs

 

Rats In The City Chords & Tabs

Virus Chords & Tabs

Version: 2 Type: Tab 0 ratings
1 star 2 stars 3 stars 4 stars 5 stars
comments

Rats In The City Tab

band: the virus
song: rats in the city (solo)
album: nowhere to hide
[ Tab from: http://www.guitartabs.cc/tabs/v/virus/rats_in_the_city_tab_ver_2.html ]
i saw the other tab on here without the solo and i accidently figured out part of it
one day, so here it is. im pretty sure this is right, and even if it isn't, it'll fool someone...
this part 2x
e--------------------------------------------------------------------------|
b--------------------------------------------------------------------------|
g-------------------------4/555-5/7-5/454----------------------------------|
d-7-7/5/7--7-7/5/7--77-5/7-------------------------------------------------|
a--------------------------------------------------------------------------|
e--------------------------------------------------------------------------|

then, same rythem

e-5-7/5-5-7/5-5-7/5-5-7/5----------------5-7/5-5-7/5-5-7/5-5-7/5---------5--|
b------------------------666-6-8-6-5p6-5-------------------------666-p8-5~--|
g---------------------------------------------------------------------------|
d---------------------------------------------------------------------------|
a---------------------------------------------------------------------------|
e---------------------------------------------------------------------------|

that's it. if my notation was weird or you just don't understand it...all the notes
are right, just listen to the song for timing. please leave feedback/rate when you're done. thanx.
Comments