Virus - Forgotten Rebel Chords & Tabs

 

Forgotten Rebel Chords & Tabs

Virus Chords & Tabs

Version: 1 Type: Tab 0 ratings
1 star 2 stars 3 stars 4 stars 5 stars
comments

Forgotten Rebel Tab

   
----------------------------------------------------------------------------
			     FORGOTTEN REBEL - The Virus
----------------------------------------------------------------------------
Tabbed by: DumbKids
Album: Singles and Rarities
Tuning: standard

Intro:
e|----------------------------------|
B|----------------------------------|
G|-5*-------------------------------|
D|-5*-5*-3333333333333333-555555555-|
A|-3*-5*-3333333333333333-555555555-|
E|----3*-1111111111111111-333333333-|
(feedback)

e|------------------------------------------------------------------------|
B|--------------------------555-3333--------------------------555-3333----|
G|-5-5-55-4-5-5-55-4-5-5-55----------5-5-55-4-5-5-55-4-5-5-55----------5~-|
D|------------------------------------------------------------------------|
A|------------------------------------------------------------------------|
E|------------------------------------------------------------------------|

Verse:
e|--------------------|
B|--------------------|
G|-55555555-----------|
D|-55555555-3333-5555-|
A|-33333333-3333-5555-|
E|----------1111-3333-|

Pre-Chorus:
e|-------------------------------------------------------------------|
B|-------------------------------------------------------------------|
G|----------------------7--------7--------------------------7-9-4b5~-|
D|-----3-------3------7---7----7---7------3--------3------7----------|
A|---3---3---3---3--5--------5----------3---3----3---3--5------------|
E|-1--------1-------------------------1--------1---------------------|

Chorus:
e|--------------------------------------|
B|--------------------------------------|
G|-55555555-----------------------------|x6
D|-55555555-33333333-55555555-333333333-|
A|-33333333-33333333-55555555-333333333-|
E|----------11111111-33333333-111111111-|
[ Tab from: http://www.guitartabs.cc/tabs/v/virus/forgotten_rebel_tab.html ]
Solo:
e|-5-8-5-8-5--5-8-5-8-55--------------|
B|-----------------------8b-8-6-6~-66-|
G|------------------------------------|x2
D|------------------------------------|
A|------------------------------------|
E|------------------------------------|

e|---------------------------------------------------|
B|-6-5-----------------------------------------------|
G|-----7-5-3-2-3-3-5b6r5-3-2-3-3-5b6r5-3-2-3-3-5b6r5-|
D|---------------------------------------------------|
A|---------------------------------------------------|
E|---------------------------------------------------|

Ending:
e|----|
B|----|
G|-5*-|
D|-5*-|
A|-3*-|
E|----|

Key:

| b  bend         |
| h  hammer-on    |
| p  pull-off     |
| ~  vibrato      |
| r  release bend |
| *  hold note    |


Order:

Intro
Verse x4
Pre-Chorus
Chorus
Verse x6
Pre-Chorus
Chorus
Solo
Verse x4
Pre-Chorus
Chorus

Lyrics:

Boys hanging out at night
But we ain't living our lives just right
Living my life with out a care
Leopard print and tattered, tattered hair

Because what you don't get you will never know
I'm living my life like a T.V. show
Forgotten rebel just like a razor blade
I'll cut through you in my tirade
Forgotten Rebel

Eyes behind my head I feel you're glare
Reflection in the glass, I feel you're stare
The spark to my fuse, you light the match
Cause there ain't no survivors in the aftermath

Because what you don't get you will never know
I'm living my life like a T.V. show
Forgotten rebel just like a razor blade
I'll cut through you in my tirade
Forgotten Rebel

Boys hanging out at night
But we ain't living our lives just right
Living my life with out a care
Leopard print and tattered, tattered hair

Because what you don't get you will never know
I'm living my life like a T.V. show
Forgotten rebel just like a razor blade
I'll cut through you in my tirade

============================================================================
Comments