Virgin Black - And The Kiss Of Gods Mouth Chords & Tabs

 

And The Kiss Of Gods Mouth Chords & Tabs

Virgin Black Chords & Tabs

Version: 1 Type: Tab 0 ratings
1 star 2 stars 3 stars 4 stars 5 stars
comments

And The Kiss Of Gods Mouth Tab

Virgin Black are a melodic metal band out of Australia. Their website is www.virginblack.com

And The Kiss Of God's Mouth [Part II]
Virgin Black
Tabbed By: guitar_freak38@hotmail.com
Tuning: standard with drop d (DADGBE)

Intro pt.1


guitar 1

E|----------------------------------------------------------------------|
B|------------------------------13-11-10-11-10--------------------------|
G|-------10-12~-12h14p12p10h12-----------------10-12-10-----------------|
D|-10h12------------------------------------------------12-10-----------|
A|----------------------------------------------------------------------|
D|----------------------------------------------------------------------|

guitar 2

E|----------------------------------------------------------------------|
B|----------------------------------------------------------------------|
G|-------10-------------------------------------------------------------|
D|-10h12-----10~-10h12p10---10h12p10---8---5--3-------------------------|
A|-----------10~-10h12p10---10h12p10---8---5--3-------------------------|
D|-----------10~-10h12p10---10h12p10---8---5--3-------------------------|


Intro pt.1 Cont'd

guitar 1

E|----------------------------------------------------------------------|
B|------------------------------13-11-10-11-10--------------------------|
G|-------10-12~-12h14p12p10h12-----------------10-12-10-----------------|
D|-10h12------------------------------------------------12-10-----------|
A|----------------------------------------------------------------------|
D|----------------------------------------------------------------------|


guitar 2

E|----------------------------------------------------------------------|
B|----------------------------------------------------------------------|
G|----------------------------------------------------------------------|
D|-----3-----10~-10h12p10---10h12p10---8---5--3-----------------3p2-----|
A|-3h5-------10~-10h12p10---10h12p10---8---5--3---------------------3---|
D|-----------10~-10h12p10---10h12p10---8---5--3-------------------------|


Intro pt.2

guitar 1

E|----------------------------------------------------------------------|
B|----------------------------------------------------------------------|
G|-10---9-------------10---9--------------------------------------------|
D|----------10---12~~---------------------------------------------------|
A|-----------------------------10---12~~--------------------------------|
D|----------------------------------------------------------------------|

guitar 2

E|----------------------------------------------------------------------|
B|----------------------------------------------------------------------|
G|----------------------------------------------------------------------|
D|-10---10h12p10--10h12p10----8---5---3--------------------3------------|
A|-10---10h12p10--10h12p10----8---5---3----------------3h5--------------|
D|-10---10h12o10--10h12p10----8---5---3---------------------------------|


Intro pt.2 cont'd

guitar 1

E|----------------------------------------------------------------------|
B|----------------------------------------------------------------------|
G|-10---9---------------------------------------------------------------|
D|----------10---12-----------------------------------------------------|
A|---------------------10---8---7---8~~~~-------------------------------|
D|----------------------------------------------------------------------|

guitar 2

E|----------------------------------------------------------------------|
B|----------------------------------------------------------------------|
G|----------------------------------------------------------------------|
D|-10---10h12p10--10h12p10-----8----2---3~~~~---------------------------|
A|-10---10h12p10--10h12p10-----8----2---3~~~~---------------------------|
D|-10---10h12p10--10h12p10-----8----2---3~~~~---------------------------|



Bit After Intro

guitar 2

E|----------------------------------------------------------------------|
B|----------------------------------------------------------------------|
G|----------------------------------------------------------------------|
D|-0~~~~~----0-----0--0-------------------------------------------------| Repeat 4 times
A|-0~~~~~----0-----0--0-------------------------------------------------|
D|-0~~~~~----0-----0--0-------------------------------------------------|


Pre-verse [play 2 times]

guitar 1

E|----------------------------------------------------------------------|
B|----------------------------------------------------------------------|(7) is played the first time only.
G|---------10---9----------------10---9---7---9-------------------------|
D|-7----------------7---8-----------------------------8---10---(7)------|
A|----------------------------------------------------------------------|
D|----------------------------------------------------------------------|

guitar 2

E|----------------------------------------------------------------------|
B|----------------------------------------------------------------------|
G|----------------------------------------------------------------------|
D|-0-------------------------------------------0------------------------|
A|-0-------------------------------------------0------------------------|
D|-0-------------------------------------------0------------------------|



Piano Verse, no guitar. If Desired, play pre-verse.
[ Tab from: http://www.guitartabs.cc/tabs/v/virgin_black/and_the_kiss_of_gods_mouth_tab.html ]
Guitar 1 then plays the pre-verse 2 more times, then back to a piano verse.

Heavy bit after the second piano verse [guitars 1&2]

E|----------------------------------------------------------------------|
B|----------------------------------------------------------------------| play 3 times
G|----------------------------------------------------------------------|
D|-0-----------5----------0-----------0---------------------------------|
A|-0-----------5----------0-----------0---------------------------------|
D|-0-----------5----------0-----------0---------------------------------|

Then guitars 1&2 play this

E|----------------------------------------------------------------------|
B|----------------------------------------------------------------------| play 2 times
G|----------------------5------------------------3----------------------|
D|-0--------------------5------------------------3----------------------|
A|-0--------------------3------------------------3----------------------|
D|-0--------------------3------------------------3----------------------|

Now for the clean part
guitar 1 only

E|----------------------------------------------------------------------|
B|----------------------------------------------------------------------| play 2 times
G|----------------------------------------------------------------------|
D|------------5--7--5---------------------------------------------------|
A|-5~~~----8-----------8-7-8-7-7h8p7------------------------------------|
D|----------------------------------------------------------------------|

Heavy duel lead part.

guitar 1

E|----------------------------------------------------------------------|
B|----------------------------------------------------------------------| play 4 times
G|----------------------------------------------------------------------|
D|-0----5--7--8--7---5---8--8--7---8--8--7------------------------------|
A|-0--------------------------------------------------------------------|
D|-0--------------------------------------------------------------------|

guitar 2

E|----------------------------------------------------------------------|
B|----------------------------------------------------------------------| play 4 times
G|----------------------------------------------------------------------|
D|-0-0-------------------0-0--------------------------------------------|
A|-0-0--8--7--5----------0-0--8--7--5-----------------------------------|
D|-0-0-------------------0-0--------------------------------------------|

Then go back to:
[guitars 1&2]

E|----------------------------------------------------------------------|
B|----------------------------------------------------------------------| play 2 times
G|----------------------5------------------------3----------------------|
D|-0--------------------5------------------------3----------------------|
A|-0--------------------3------------------------3----------------------|
D|-0--------------------3------------------------3----------------------|


Build up bit [both guitars]

E|----------------------------------------------------------------------|
B|----------------------------------------------------------------------|Play 5 times
G|----------------------------------------------------------------------|
D|-0-0--------------0-0-------------------------------------------------|
A|-0-0--8--7--5-----0-0--8--7--5----------------------------------------|
D|-0-0--------------0-0-------------------------------------------------|

Climactic bit:

guitar 1

E|----------------------------------------------------------------------|
B|----------------------------------------------------------------------| play 7 times
G|----------------------------------------------------------------------|
D|------------5--7--5---------------------------------------------------|
A|-5~~~----8-----------8-7-8-7-7h8p7------------------------------------|
D|----------------------------------------------------------------------|

guitar 2

E|-10--10---10----------------------------------------------------------|
B|-10--10---10----------------------------------------------------------| play 7 times
G|-10--10---10------5--------3------------------------------------------|
D|-12--12---12------5--------3------------------------------------------|
A|-12--12---12------3--------3------------------------------------------|
D|------------------3--------3------------------------------------------|

last line

guitar 1

E|----------------------------------------------------------------------|
B|----------------------------------------------------------------------|
G|----------------------------------------------------------------------|
D|------------5--7--5---------------------------------------------------|
A|-5~~~----8-----------8--7--8--7~~~------------------------------------|
D|----------------------------------------------------------------------|

guitar 2

E|-10~~~~~--------------------------------------------------------------|
B|-10~~~~~--------------------------------------------------------------|
G|-10~~~~~------------5~~~~~--------------------------------------------|
D|-12~~~~~------------5~~~~~--------------------------------------------|
A|-12~~~~~------------5~~~~~--------------------------------------------|
D|--------------------5~~~~~--------------------------------------------|


There you go. That's the song. It should be really close to exact, but if not e-mail me
and tell me. It sounds the same as the recording so it must be right.
Comments