Violent Soho - Here Be Dragons Chords & Tabs

 

Here Be Dragons Chords & Tabs

Violent Soho Chords & Tabs

Version: 1 Type: Bass Tab

Here Be Dragons Bass Tab

Intro 1/Verse 1
|-----------------------------|
|-2--2-0-2--2-0-2--2-0--------|
|-----------------------2-2-2-|
|-----------------------------| x4

Intro 2
|------------------------------|
|-2--2-0-2-3-2-0-2--2-0--------|
|------------------------2-2-2-|
|------------------------------| x4

play Verse 1 x4
[ Tab from: http://www.guitartabs.cc/tabs/v/violent_soho/here_be_dragons_btab.html ]
Verse 2
|-------------------------------|
|-------------------------------|
|-2--2-0-2--2-0-2-2-5-5/7-7-7---|
|-------------------------------| x4

Chorus
|------------------------------------|
|-------------------4-4-4-4--3-3-3-3-|
|-2-2-2-2--5-5-5-5-------------------|
|------------------------------------| x4

Verse 1 x2
Verse 2 x4
Chorus x4
Intro 2 x12
Chorus x8

End note
|---|
|-2-|
|---|
|---|

That's all have fun guys!