Violent Femmes - Didgeriblues Chords & Tabs

 

Didgeriblues Chords & Tabs

Violent Femmes Chords & Tabs

Version: 1 Type: Tab 0 ratings
1 star 2 stars 3 stars 4 stars 5 stars
comments

Didgeriblues Tab

#----------------------------------PLEASE NOTE---------------------------------#
#This file is the author's own work and represents their interpretation of the #
#song. You may only use this file for private study, scholarship, or research. #
#------------------------------------------------------------------------------#
#
Date: Sun, 28 Jan 1996 12:15:03 -0500
From: Bryson Meunier 
Subject: TAB:"Didgeriblues" by violent femmes

        This song is relatively easy to play but that doesn't stop it from
sounding cool. It's highly unlikely that I could have screwed up this
transcription given the simplicity of the song. Nonetheless,
corrections,comments or questions are still welcome at meunier.1@osu.edu
Have fun with it.

        "Didgeriblues"(Gordon Gano,Brian Ritchie)

Performed by the violent femmes on "ROCK!!!"(1995)
guitar part transcribed by Bryson Meunier

   E--------------------------------------------------|
   B--------------------------------------------------|
   G--------------------------------------------------|
   D-------------2-1--------------2-1--------------2-1|
   A--1-1-2-1--1-------1-1-2-1--1-------1-1-2-1--1----|
   E--------------------------------------------------|
[ Tab from: http://www.guitartabs.cc/tabs/v/violent_femmes/didgeriblues_tab.html ]
   E--------------------------------------------------|
   B--------------------------------------------------|
   G------------------------------2-1--------------2-1|
   D-------------2-1---1-1-2-1--1-------1-1-2-1--1----|
   A--1-1-2-1--1--------------------------------------|
   E--------------------------------------------------|

   E--------------------------------------------------|
   B--------------------------------------------------|
   G--------------------------------------4----4------|
   D-------------2-1--------------2-1---3----3----3---|
   A--1-1-2-1--1-------1-1-2-1--1---------------------|
   E--------------------------------------------------|

   E--------------------------------------------------|
   B--------------------------------------------------|
   G----2----2----------------------------------------|
   D--1----1----1-------------2-1--------------2-1----|
   A---------------1-1-2-1--1-------1-1-2-1--1--------|
   E--------------------------------------------------|

That's basically it. Just play that until the end of the song and then end
on something like this:

   E--------------------------------------------------|
   B--------------------------------------------------|
   G--------------------------------------------------|
   D--2-1-2-1-2-1-2-1---------------------------------|
   A--------------------------------------------------|
   E--------------------------------------------------|
Comments