Violent Femmes - Blister In The Sun Chords & Tabs

 

Blister In The Sun Chords & Tabs

Violent Femmes Chords & Tabs

Version: 12 Type: Tab 0 ratings
1 star 2 stars 3 stars 4 stars 5 stars
comments

Blister In The Sun Tab

BLISTER IN THE SUN by: Violent Femmes  


Tab by: Aaron Meredith & Co.


^ = up-stroke
* = harmonic

Intro:  
e|-----------|-----------|-------------|
B|-----------|-----------|-------------|
G|-----------|-----------|-------------|
D|-----------|-----------|-------------|
A|----2--3-2-|---2---3-2-|----2--3-2---|  
E|-3---3-----|-3---3-----|-3---3-----3-|

Verse:                                        (optional last part)
e|-----------|-----------|----------------|    |----------------|
B|-0-3--5-3--|-0-3-3-5-3-|-0-3--5-3p-1-0--|    |--0-3--5--3--0--|
G|-0-4--5-4--|-0-4-4-5-4-|-0-4--5-4p-2-0--|x2  |--0-4--5--4--0--|
D|-----------|-----------|----------------|    |----------------|
A|-----------|-----------|----------------|    |----------------|  
E|-----------|-----------|----------------|    |----------------|

Verse: (strumming)
e|--3---3-3-3-----3---3-3--3-----3---3-3-3-----3----|
B|--3---3-3-3--0--3---3-3--3--0--3---3-3-3---0-3----|
G|--0---0-0-0--0--0---0-0--0--0--0---0-0-0---0-0----|x2
D|--0---0-0-2--0--0---0-0--2--0--0---0-0-2---0-0----|
A|--2---2-2-3--0--2---2-2--3--0--2---2-2-3---0-2----|  
E|--3---3-3-------3---3-3--------3---3-3-------3----|

[ Tab from: http://www.guitartabs.cc/tabs/v/violent_femmes/blister_in_the_sun_tab_ver_12.html ]
Chorus:
e|-0---0-0---0-0-0--------0---0-0---0-0-0------|
B|-0---0-0---0-0-0--------1---1-1---1-1-1------|
G|-0---0-0---0-0-0--------0---0-0---0-0-0------|
D|-2---2-2---2-2-2-(x2)---2---2-2---2-2-2-(x2)-|
A|-2---2-2---2-2-2--------3---3-3---3-3-3------|
E|-0---0-0---0-0-0--------x---x-x---x-x-x------|
         ^   ^   ^              ^   ^   ^
e|-0---0-0---0-0-0--------0---0-0---0-0-0--|
B|-0---0-0---0-0-0--------1---1-1---1-1-1--|
G|-0---0-0---0-0-0--------0---0-0---0-0-0--|
D|-2---2-2---2-2-2-(x2)---2---2-2---2-2-2--|
A|-2---2-2---2-2-2--------3---3-3---3-3-3--|
E|-0---0-0---0-0-0--------x---x-x---x-x-x--|
         ^   ^   ^              ^   ^   ^
e|-2---2-2---2-2-2----2---2-2---2-2-2-|
B|-3---3-3---3-3-3----3---3-3---3-3-3-|
G|-2---2-2---2-2-2----2---2-2---2-2-2-|
D|-0---0-0---0-0-0----0---0-0---0-0-0-|
A|------------------------------------|
E|------------------------------------|
         ^   ^   ^          ^   ^   ^ 

Guitar: (before quiet vocals)
e|----33-3-3--3-3-3-3---33-3333---|
B|----00-1-0--0-0-1-0---00-1000---|
G|--0-00-0-00-0-0-0-0-0-00-0000---|
D|--0-00-0-00-0-0-0-0-0-00-0000---|
A|--------------------------------|  
E|--------------------------------|


e|--3-3-3-33-3-33-3-3-3-3333---|
B|--0-0-0-00-0-00-0-0-0-0000---|
G|--0-0-0-00-0-00-0-0-0-0000---|
D|--0-0-0-00-0-00-0-0-0-0000---|
A|-----------------------------|  
E|-----------------------------|

e|-----------|-----------|---------------|---------|
B|-----------|-----------|---------------|---------|
G|-----------|-----------|---------------|---12*~--|
D|-----------|-----------|---------------|---12*~--|
A|----2--3-2-|---2---3-2-|----2--3-2-0---|---------|  
E|-3---3-----|-3---3-----|-3---3-------3-|---------|
Comments