Violent Femmes - Blister In The Sun Chords & Tabs

 

Blister In The Sun Chords & Tabs

Violent Femmes Chords & Tabs

Version: 11 Type: Tab 0 ratings
1 star 2 stars 3 stars 4 stars 5 stars
comments

Blister In The Sun Tab

Intro

|-------------------------------------|
|-------------------------------------|
|-------------------------------------|
|-------------------------------------|
|-----2-3-4-3---3-4-3---3-4-3---------|REPEAT X1
|---3---------3-------3-------3-3-----|REPEAT X1

When I'm out walking I strut my stuff yeah I'm so strung out
I'm high as a kite I just might stop to check you out

Chorus
[ Tab from: http://www.guitartabs.cc/tabs/v/violent_femmes/blister_in_the_sun_tab_ver_11.html ]
|-------------------------------------|
|-------------------------------------|
|-------------------------------------|
|-------------------------------------|
|-------------------------------------|
|-9-9-9-9-6-----6-6--2-2-2--4-4-------|
Let me go on like I blister in the sun

|-------------------------------------|
|-------------------------------------|
|-------------------------------------|
|-------------------------------------|
|-------------------------------------|
|-9-9-9-9-6----6-6-6-6-6-6--2-2-4-----|
Let me go on big hands I know your the one
Comments