Violent Femmes - Blister In The Sun Chords & Tabs

 

Blister In The Sun Chords & Tabs

Violent Femmes Chords & Tabs

Version: 10 Type: Tab 0 ratings
1 star 2 stars 3 stars 4 stars 5 stars
comments

Blister In The Sun Tab

VIOLENT FEMMES  -  BLISTER IN THE SUN

^ = upstroke
P = pull

Riff 1  (intro/verse)
e|-----------|-----------|-------------|
B|-----------|-----------|-------------|
G|-----------|-----------|-------------|
D|-----------|-----------|-------------|
A|---2---3p2-|---2---3p2-|---2---3p2---|  X2
E|-3---3-----|-3---3-----|-3---3-----3-|

Riff 2
e|-----------|-----------|-------------|
B|-----------|-----------|-------------|
G|---4---5p4-|---4---5p4-|---4---5p4---|
D|-5---5-----|-5---5-----|-5---5-----5-|
A|-----------|-----------|-------------|  
E|-----------|-----------|-------------|

[ Tab from: http://www.guitartabs.cc/tabs/v/violent_femmes/blister_in_the_sun_tab_ver_10.html ]
Chorus
e|-0---0-0-----0-0-0---0---0-0-----0-0-0|
B|-0---0-0-----0-0-0---0---0-0-----0-0-0|
G|-0---0-0-----0-0-0---0---0-0-----0-0-0|
D|-2---2-2-----2-2-2---2---2-2-----2-2-2|
A|-2---2-2-----2-2-2---2---2-2-----2-2-2|
E|-0---0-0-----0-0-0---0---0-0-----0-0-0|
         ^     ^   ^         ^     ^   ^
e|-0---0-0-----0-0-0---0---0-0-----0-0-0|
B|-1---1-1-----1-1-1---1---1-1-----1-1-1|
G|-0---0-0-----0-0-0---0---0-0-----0-0-0|
D|-2---2-2-----2-2-2---2---2-2-----2-2-2|
A|-3---3-3-----3-3-3---3---3-3-----3-3-3|
E|--------------------------------------|
         ^     ^   ^         ^     ^   ^
e|-0---0-0-----0-0-0---0---0-0-----0-0-0|
B|-0---0-0-----0-0-0---0---0-0-----0-0-0|
G|-0---0-0-----0-0-0---0---0-0-----0-0-0|
D|-2---2-2-----2-2-2---2---2-2-----2-2-2|
A|-2---2-2-----2-2-2---2---2-2-----2-2-2|
E|-0---0-0-----0-0-0---0---0-0-----0-0-0|
         ^     ^   ^         ^     ^   ^
e|-0---0-0-----0-0-0-|
B|-1---1-1-----1-1-1-|
G|-0---0-0-----0-0-0-|
D|-2---2-2-----2-2-2-|
A|-3---3-3-----3-3-3-|
E|-------------------|
         ^     ^   ^
e|-2---2-2-----2-2-2---2---2-2-----2-2-2-|
B|-3---3-3-----3-3-3---3---3-3-----3-3-3-|
G|-2---2-2-----2-2-2---2---2-2-----2-2-2-|
D|-0---0-0-----0-0-0---0---0-0-----0-0-0-|
A|---------------------------------------|
E|---------------------------------------|
         ^     ^   ^         ^     ^   ^ 


Riff 1   x2
Riff 2   x4
Chorus   x1
Riff 2   x2
Chorus   x1
Riff 2   x2

Bass Solo

Chorus   x1
Riff 2   x2


I am pretty sure this is right, theres a little part right before the
wispering part (bass solo) that i can't get, but i don't think it's 
to hard.  ENJOY!!  
If this stinks and you hate me (or if you like it) 
you can E-mail me at Skidadle89@aol.com
Comments