Violent Femmes - Add It Up Chords & Tabs

 

Add It Up Chords & Tabs

Violent Femmes Chords & Tabs

Version: 3 Type: Bass Tab

Add It Up Bass Tab

   
Violent Femmes - Add It Up
By Jonathan St-Pierre (jonath01@hotmail.com)

Intro: Rest

Riff 1:
G|--------------------|--------------------|------------------|
D|--------------------|--------------------|-7--7-----7--7----|
A|--------------------|--------------------|-7--7-----7--7----|
E|-777-5777-577-57-77-|-777-5777-577-57-77-|-5--5-----5--5----|

G|----------------------------|
D|------------------97-7------|
A|-----5-7-9-7-9------9-9-7-5-|
E|-5-7------------------------|

Riff 2:
G|--------------------|--------------------|------------------|------|
D|--------------------|--------------------|----7--------7----|-9----|
A|--------------------|--------------------|----7--------7----|-9-R--| x2
E|-777-5777-577-57-77-|-777-5777-577-57-77-|-5--5-----5--5----|-7----|

Bass Solo 1:
G|---------------------|---------------|--9---11--12--14--16--|
D|-97--7---------------|*-------------*|--7---9---10--12--14--|
A|----9-9-797--7-------|*----4-7-5-4-5*|-0---0---0---0---0----|
E|------------9-9-797--|-5-7-----------|----------------------|

G|-----------------------------4-----|
D|------------------4--5---7-----5---|
A|-------4--5----7-------------------|
E|-5--7------------------------------|


Riff 3:
G|--------------------|--------------------|-----------------|-----|
D|--------------------|--------------------|-7--7-----9------|-----|
A|--------------------|--------------------|-7--7-----9--R---|--R--|
E|-777-5777-577-57-77-|-777-5777-577-57-77-|-5--5-----7------|-----|


Riff 4:
G|---------------------|---------------------|----2--------2----|
D|---------------4-420-|---------------4-420-|----2--------2----|
A|-2-20----0-2-2-------|-2-20----0-2-2-------|-0--0-----0--0----|
E|-----2---------------|-----2---------------|------------------|

G|-----------------|---------------|
D|-----------------|---------------|
A|-----5-7-9-7-5-7-|-----5-7-5-----|
E|-5-7-------------|-5-7-------7-5-|


Riff 5:
G|---------------------|---------------------|----2--------2----|
D|---------------4-420-|---------------4-420-|----2--------2----|
A|-2-20----0-2-2-------|-2-20----0-2-2-------|-0--0-----0--0----|
E|-----2---------------|-----2---------------|------------------|
[ Tab from: http://www.guitartabs.cc/tabs/v/violent_femmes/add_it_up_btab_ver_3.html ]
G|---------x7-x9---------------------------------------------|
D|--x7--x9---------------------------------------------------------|
A|--------------------------------------------------------------|
E|--------------------------------------------------------------|

Riff 6: (Slow)
G|----4--------4-------|----4--------4-------|-------------------------------|
D|------4--20---4---2-0|------4--20---4---2-0|----22-----22-0----44-----44-0-|
A|-2---------2---------|-2---------2---------|-00-----00------22-----22------|
E|---------------------|---------------------|-------------------------------|

Riff 7:
G|--------------------------------|--------------------------------|
D|----44----44-20-----44-----44-20|----22-----22-0----44-----4-420-|
A|-22----22-------22-----22-------|-00-----00------22-----22-------| x2
E|--------------------------------|--------------------------------|

Riff 8:
G|--------------------|--------------------|------------------|
D|--------------------|--------------------|-7--7-----7--7----|
A|--------------------|--------------------|-7--7-----7--7----|
E|-777-5777-577-57-77-|-777-5777-577-57-77-|-5--5-----5--5----|

G|--------------------|
D|--------------------|
A|--------------------|
E|-777-5777-577-57-77-|

Guitar Solo:
G|---------------------|---------------------|---2---2---2---2---|
D|---------------4-420-|---------------4-420-|---2---2---2---2---|
A|-2-20----0-2-2-------|-2-20----0-2-2-------|-0-0-0-0-0-0-0-0-0-|
E|-----2---------------|-----2---------------|-------------------|

G|---------------------|-4-----|
D|---------------4-420-|-4-----|
A|-2-20----0-2-2-------|-2--R--|
E|-----2---------------|-------|

Riff 7 x4
Riff 2
Riff 8
Riff 4 x2

Bass solo
G|---------------------|---------------|--9---11--12--14--16--|
D|-97--7---------------|*-------------*|--7---9---10--12--14--|
A|----9-9-797--7-------|*----4-7-5-4-5*|-0---0---0---0---0----|
E|------------9-9-797--|-5-7-----------|----------------------|

G|--------------------------------------|
D|-----------------9-7779-7779-777------|
A|-----5-7-9-7-9-7----------------------|
E|-5-7----------------------------------|


G|------------------------------------|--9---11--12--14--16--|
D|-97--7------------------------------|--7---9---10--12--14--|
A|----9-9-797--7------------4-7-5-4-5-|-0---0---0---0---0----|
E|------------9-9-797---5-7-----------|----------------------|

G|------------------------------|
D|-97--7------------------9-----|
A|----9-9-797--7----------9-R---|
E|------------9-9-797--7777-----|