Violent Femmes - 36-24-36 Chords & Tabs

 

36-24-36 Chords & Tabs

Violent Femmes Chords & Tabs

Version: 2 Type: Tab 0 ratings
1 star 2 stars 3 stars 4 stars 5 stars
comments

36-24-36 Tab

Band: Violent Femmes
Song: 36-24-36

tabbed by jam9383@yahoo.com

Verse

e------5--5-----5--5-----5--5-----5-----------------------------------|
B------5--5-----5--5-----5--5-----5-----7--7-----7--7-----7--7-----7--|
G------6--6-----6--6-----6--6-----6--7--7--7--7--7--7--7--7--7--7--7--|
D---7--7--7--7--7--7--7--7--7--7--7--7--7--7--7--7--7--7--7--7--7--7--|
A---7--------7--------7--------7-----5--------5--------5--------5-----|
E---5--------5--------5--------5--------------------------------------|

e------5--5-----5--5-----5--5-----5-----------------------------------|
B------5--5-----5--5-----5--5-----5-------9--9-----9--9----9--9-----9-|
G------6--6-----6--6-----6--6-----6----9--9--9--9--9--9-9--9--9--9--9-|
D---7--7--7--7--7--7--7--7--7--7--7----9--9--9--9--9--9-9--9--9--9--9-|
A---7--------7--------7--------7-------7--------7-------7--------7----|
E---5--------5--------5--------5--------------------------------------|

End of Verse

e-----5--5-----5--5---------5-----------------------------------------|
B-----5--5-----5--5--7---7--5-----------------------------------------|
G-----6--6-----6--6--7---7--6-----------------------------------------|
D--7--7--7--7--7--7--7---7--7-----------------------------------------|
A--7--------7--------5---5--7-----------------------------------------|
E--5--------5---------------5-----------------------------------------|

Solo
[ Tab from: http://www.guitartabs.cc/tabs/v/violent_femmes/36_24_36_tab_ver_2.html ]
e---------------------------------------------------8--------------------|
B---5--5--------------------------------5-5-5-8-10----8b-----------------|
G--7b-----7p5-----5--7b--5--7p5------5--7--------------------------------|
D--------------7----------------7----------------------------------------|
A------------------------------------------------------------------------|
E------------------------------------------------------------------------|

Bridge

e---------------------------------------------------------------------|
B---9---9----7---7--5--5--5--5---9---9----7---------------------------|
G---9---9----7---7--6--6--6--6---10--10---8---------------------------|
D---9---9----7---7--7--7--7--7---11--11---9---------------------------|
A---7---7----5---5--7--7--7--7---11--11---9---------------------------|
E-------------------5--5--5--5---9---9----7---------------------------|

Solo 2

e---5-----------------------------------------------------------------|
B---8b---8p5------5-------------------------------5--5----------------|
G-------------7-----7---7p5-5--5--5---------5---7-------7-------------|
D------------------------------------7--------------------------------|
A---------------------------------------------------------------------|
E---------------------------------------------------------------------|

e---------------------------------------------------------------------|
B--8---10-10-10-9-8-7-6-5-4-3-2-1\------------------------------------|
G---------------------------------------------------------------------|
D---------------------------------------------------------------------|
A---------------------------------------------------------------------|
E---------------------------------------------------------------------|

Outro

e------5--5-----5--5-----5--5-----5------------------------------------|
B------5--5-----5--5-----5--5-----5------------------------------------|
G------6--6-----6--6-----6--6-----6------------------------------------|
D---7--7--7--7--7--7--7--7--7--7--7------------------------------------|
A---7--------7--------7--------7---------------------------------------|
E---5--------5--------5--------5---------------------------------------|

any comments or corrections contact me, please rate
Comments