Violent Delight - Shatterd Chords & Tabs

 

Shatterd Chords & Tabs

Violent Delight Chords & Tabs

Version: 1 Type: Tab 0 ratings
1 star 2 stars 3 stars 4 stars 5 stars
comments

Shatterd Tab

   
this is my first tab so its probly not that good

tuneing drop d

Intro/chorus
e|--------------------------------------------|
B|--------------------------------------------|
G|--------------------------------------------|
D|----------9-10-9-7--------------------------|
A|--7-7-7-7-7-7--7-7-7-7-3-3-3-3-3-----5-----3|
D|--7-7-7-7----------7-7-3-3-3-3-3------------|
[ Tab from: http://www.guitartabs.cc/tabs/v/violent_delight/shatterd_tab.html ]
Verse
E-----------|
B-----------|
G-----------|
D-0-0-0-0-0-| after this just put your hand on the strings
A-0-0-0-0-0-|
D-0-0-0-0-0-|

bridge
E-----------|
B-----------|
G-----------|
D-2--4--2-4-|
A-2--4--2-4-|
D-2--4--2-4-|

intro/chorus x 2
verse        x 22 i think might not be right
intro/chorus x 2
verse        x 22
intro/chorus x 2
bridge       x i realy dont no how many times
intro\chorus x 8
then i think there might be a bit but i dont no it
Comments