Violent Delight - I Wish I Was A Girl Chords & Tabs

 

I Wish I Was A Girl Chords & Tabs

Violent Delight Chords & Tabs

Version: 3 Type: Tab 0 ratings
1 star 2 stars 3 stars 4 stars 5 stars
comments

I Wish I Was A Girl Tab

   
Violent Delight From The U.K. - http://violentdelight.com

Artist / Band - Violent Delight
Album - Hand's Up! If You've Got VD
Track Number - 02
Track Name - I Wish I Was A Girl
Tabber - Keith Fusco
Email Address - keith_fusco_the_offspring_fan@hotmail.com
Web Page - http://koro.20m.com

This is an amazing song by Violent Delight, and I havent seen a tab out for
this yet, so I decided to sit down and tab it out for everyone so that they
could play it. I think it's about 99% correct apart from the interlude bit, 
which when it comes to that part you can just jusp around like a madman and 
play how it says, it's bound to sound something like it. lol. Please email your
comments and any corrections, Or if you think any of the lyrics are wrong, Or
if you want to request A tab email me and i'll try my best to tab it and email
it to you as soon as possible.

Legend:

p - Pull Off
pm - Palm Muted
* - Let Ring
\ - Slide Down Neck
/ - Slide Up neck
< - Pick Scrape Down Neck
> - Pick Scrape Up Neck
^ - Bend

Standard Tuning (E,A,D,G,B,E)

Intro

E |---------------------------------------------------|
B |---------------------------------------------------|
G |-9-9-9-9-/-12-12-12-12-/-11-11-11-11-/-16-16-16-16-|
D |-7-7-7-7-/-10-10-10-10-/--9--9--9--9-/-14-14-14-14-|
A |---------------------------------------------------|
E |---------------------------------------------------|

E |---------------------------------------------------|
B |---------------------------------------------------|
G |-9-9-9-9-/-12-12-12-12-/-11-11-11-11-/-16-16-16-16-|
D |-7-7-7-7-/-10-10-10-10-/--9--9--9--9-/-14-14-14-14-|
A |---------------------------------------------------|
E |---------------------------------------------------|

E |-----------------------------------------------------------------|
B |-----------------------------------------------------------------|
G |-----------------------------------------------------------------|
D |-7-7p-x-7-7-8*-\-3-3p-x-3-3-4*-/-7-7p-x-7-7-8*-\-3-3p-x-3-3-4*-/-|
A |-7-7p-x-7-7-8*-\-3-3p-x-3-3-2*-/-7-7p-x-7-7-8*-\-3-3p-x-3-3-4*-/-|
E |-5-5p-x-5-5-6*-\-1-1p-x-1-1-2*-/-5-5p-x-5-5-6*-\-1-1p-x-1-1-2*-/-|

Verse

E |-----------------------------------------------------------------------|
B |-----------------------------------------------------------------------|
G |-----------------------------------------------------------------------|
D |-7-7-7-7-7-7-7-7-\-3-3-3-3-3-3-3-3-/-7-7-7-7-7-7-7-7-\-3-3-3-3-3-3-3-3-|
A |-7-7-7-7-7-7-7-7-\-3-3-3-3-3-3-3-3-/-7-7-7-7-7-7-7-7-\-3-3-3-3-3-3-3-3-|
E |-5-5-5-5-5-5-5-5-\-1-1-1-1-1-1-1-1-/-5-5-5-5-5-5-5-5-\-1-1-1-1-1-1-1-1-|
   |--------------------------------pm-----------------------------------|

E |-----------------------------------------------------------------------|
B |-----------------------------------------------------------------------|
G |-----------------------------------------------------------------------|
D |-7-7-7-7-7-7-7-7-\-3-3-3-3-3-3-3-3-/-7-7-7-7-7-7-7-7-\-3-3-3-3-3-3-3-3-|
A |-7-7-7-7-7-7-7-7-\-3-3-3-3-3-3-3-3-/-7-7-7-7-7-7-7-7-\-3-3-3-3-3-3-3-3-|
E |-5-5-5-5-5-5-5-5-\-1-1-1-1-1-1-1-1-/-5-5-5-5-5-5-5-5-\-1-1-1-1-1-1-1-1-|
   |--------------------------------pm-----------------------------------|

Bridge

E |-----------------------------------------------------------------|
B |-----------------------------------------------------------------|
G |-----------------------------------------------------------------|
D |-7-7p-x-7-7-8*-\-3-3p-x-3-3-4*-/-7-7p-x-7-7-8*-\-3-3p-x-3-3-4*-/-|
A |-7-7p-x-7-7-8*-\-3-3p-x-3-3-2*-/-7-7p-x-7-7-8*-\-3-3p-x-3-3-4*-/-|
E |-5-5p-x-5-5-6*-\-1-1p-x-1-1-2*-/-5-5p-x-5-5-6*-\-1-1p-x-1-1-2*-/-|

Verse

E |----------------------------------------------------------------|
B |----------------------------------------------------------------|
G |----------------------------------------------------------------|
D |-7--7-7--7--0-0--3--3-3--3--0-0--7--7-7--7--0-0--3--3-3--3--0-0-|
A |-7--7-7--7--0-0--3--3-3--3--0-0--7--7-7--7--0-0--3--3-3--3--0-0-|
E |-5--5-5--5--0-0--1--1-1--1--0-0--5--5-5--5--0-0--1--1-1--1--0-0-|
      |pm-|   |pm-|   |pm-|   |pm-|   |pm-|   |pm-|   |pm-|   |pm-|

E |----------------------------------------------------------------|
B |----------------------------------------------------------------|
G |----------------------------------------------------------------|
D |-7--7-7--7--0-0--3--3-3--3--0-0--7--7-7--7--0-0--3--3-3--3--0-0-|
A |-7--7-7--7--0-0--3--3-3--3--0-0--7--7-7--7--0-0--3--3-3--3--0-0-|
E |-5--5-5--5--0-0--1--1-1--1--0-0--5--5-5--5--0-0--1--1-1--1--0-0-|
      |pm-|   |pm-|   |pm-|   |pm-|   |pm-|   |pm-|   |pm-|   |pm-|

Bridge

e |--------------------------------|
B |--------------------------------|
G |--------------------------------|
D |---------9---------9---10-------|
A |-7-7p--7---7-7p--7---7----------|
E |--------------------------<-<-<-|

Chorus

E |----------------------------------------------------------------|
B |----------------------------------------------------------------|
G |---------------------------------5--5-5-5-5-5-5-----------------|
D |-7--7-7-7-7-7-7--3--3-3-3-3-3-3--5--5-5-5-5-5-5--5--5-5-5-5-5-5-|
A |-7--7-7-7-7-7-7--3--3-3-3-3-3-3--3--3-3-3-3-3-3--5--5-5-5-5-5-5-|
E |-5--5-5-5-5-5-5--1--1-1-1-1-1-1------------------3--3-3-3-3-3-3-|

E |----------------------------------------------------------------|
B |----------------------------------------------------------------|
G |---------------------------------5--5-5-5-5-5-5-----------------|
D |-7--7-7-7-7-7-7--3--3-3-3-3-3-3--5--5-5-5-5-5-5--5--5-5-5-5-5-5-|
A |-7--7-7-7-7-7-7--3--3-3-3-3-3-3--3--3-3-3-3-3-3--5--5-5-5-5-5-5-|
E |-5--5-5-5-5-5-5--1--1-1-1-1-1-1------------------3--3-3-3-3-3-3-|

End Of Chorus

E |------------------------|
B |------------------------|
G |------------------------|
D |-3-3--3--4*--3-3--3--2*-|
A |-3-3--3--4*--3-3--3--2*-|
E |-1-1--1--2*--1-1--1--0*-|
   |--pm--|    |--pm--|

Verse

E |-----------------------------------------------------------------------|
B |-----------------------------------------------------------------------|
G |-----------------------------------------------------------------------|
D |-7-7-7-7-7-7-7-7-\-3-3-3-3-3-3-3-3-/-7-7-7-7-7-7-7-7-\-3-3-3-3-3-3-3-3-|
A |-7-7-7-7-7-7-7-7-\-3-3-3-3-3-3-3-3-/-7-7-7-7-7-7-7-7-\-3-3-3-3-3-3-3-3-|
E |-5-5-5-5-5-5-5-5-\-1-1-1-1-1-1-1-1-/-5-5-5-5-5-5-5-5-\-1-1-1-1-1-1-1-1-|
   |--------------------------------pm-----------------------------------|

E |-----------------------------------------------------------------------|
B |-----------------------------------------------------------------------|
G |-----------------------------------------------------------------------|
D |-7-7-7-7-7-7-7-7-\-3-3-3-3-3-3-3-3-/-7-7-7-7-7-7-7-7-\-3-3-3-3-3-3-3-3-|
A |-7-7-7-7-7-7-7-7-\-3-3-3-3-3-3-3-3-/-7-7-7-7-7-7-7-7-\-3-3-3-3-3-3-3-3-|
E |-5-5-5-5-5-5-5-5-\-1-1-1-1-1-1-1-1-/-5-5-5-5-5-5-5-5-\-1-1-1-1-1-1-1-1-|
   |--------------------------------pm-----------------------------------|

E |----------------------------------------------------------------|
B |----------------------------------------------------------------|
G |----------------------------------------------------------------|
D |-7--7-7--7--0-0--3--3-3--3--0-0--7--7-7--7--0-0--3--3-3--3--0-0-|
A |-7--7-7--7--0-0--3--3-3--3--0-0--7--7-7--7--0-0--3--3-3--3--0-0-|
E |-5--5-5--5--0-0--1--1-1--1--0-0--5--5-5--5--0-0--1--1-1--1--0-0-|
      |pm-|   |pm-|   |pm-|   |pm-|   |pm-|   |pm-|   |pm-|   |pm-|
[ Tab from: http://www.guitartabs.cc/tabs/v/violent_delight/i_wish_i_was_a_girl_tab_ver_3.html ]
E |----------------------------------------------------------------|
B |----------------------------------------------------------------|
G |----------------------------------------------------------------|
D |-7--7-7--7--0-0--3--3-3--3--0-0--7--7-7--7--0-0--3--3-3--3--0-0-|
A |-7--7-7--7--0-0--3--3-3--3--0-0--7--7-7--7--0-0--3--3-3--3--0-0-|
E |-5--5-5--5--0-0--1--1-1--1--0-0--5--5-5--5--0-0--1--1-1--1--0-0-|
      |pm-|   |pm-|   |pm-|   |pm-|   |pm-|   |pm-|   |pm-|   |pm-|

Bridge

e |--------------------------------|
B |--------------------------------|
G |--------------------------------|
D |---------9---------9---10-------|
A |-7-7p--7---7-7p--7---7----------|
E |--------------------------<-<-<-|

Chorus

E |----------------------------------------------------------------|
B |----------------------------------------------------------------|
G |---------------------------------5--5-5-5-5-5-5-----------------|
D |-7--7-7-7-7-7-7--3--3-3-3-3-3-3--5--5-5-5-5-5-5--5--5-5-5-5-5-5-|
A |-7--7-7-7-7-7-7--3--3-3-3-3-3-3--3--3-3-3-3-3-3--5--5-5-5-5-5-5-|
E |-5--5-5-5-5-5-5--1--1-1-1-1-1-1------------------3--3-3-3-3-3-3-|

E |----------------------------------------------------------------|
B |----------------------------------------------------------------|
G |---------------------------------5--5-5-5-5-5-5-----------------|
D |-7--7-7-7-7-7-7--3--3-3-3-3-3-3--5--5-5-5-5-5-5--5--5-5-5-5-5-5-|
A |-7--7-7-7-7-7-7--3--3-3-3-3-3-3--3--3-3-3-3-3-3--5--5-5-5-5-5-5-|
E |-5--5-5-5-5-5-5--1--1-1-1-1-1-1------------------3--3-3-3-3-3-3-|

E |----------------------------------------------------------------|
B |----------------------------------------------------------------|
G |---------------------------------5--5-5-5-5-5-5-----------------|
D |-7--7-7-7-7-7-7--3--3-3-3-3-3-3--5--5-5-5-5-5-5--5--5-5-5-5-5-5-|
A |-7--7-7-7-7-7-7--3--3-3-3-3-3-3--3--3-3-3-3-3-3--5--5-5-5-5-5-5-|
E |-5--5-5-5-5-5-5--1--1-1-1-1-1-1------------------3--3-3-3-3-3-3-|

E |----------------------------------------------------------------|
B |----------------------------------------------------------------|
G |---------------------------------5--5-5-5-5-5-5-----------------|
D |-7--7-7-7-7-7-7--3--3-3-3-3-3-3--5--5-5-5-5-5-5--5--5-5-5-5-5-5-|
A |-7--7-7-7-7-7-7--3--3-3-3-3-3-3--3--3-3-3-3-3-3--5--5-5-5-5-5-5-|
E |-5--5-5-5-5-5-5--1--1-1-1-1-1-1------------------3--3-3-3-3-3-3-|
   |-------------pm---------------|

Interlude

E |----------------------------------------------------------|
B |----------------------------------------------------------|
G |----------------------------------------------------------|
D |-3-3--3--4*--3-3--3--2*-3-3--3--4*--3-3--3--2*-3-3--3--4*-|
A |-3-3--3--4*--3-3--3--2*-3-3--3--4*--3-3--3--2*-3-3--3--4*-|
E |-1-1--1--2*--1-1--1--0*-1-1--1--2*--1-1--1--0*-1-1--1--2*-|
   |--pm--|    |--pm--|   |--pm--|    |--pm--|   |--pm--|

E |-----------------------------------|
B |-----------------------------------|
G |-----------------------------------|
D |-3-3--3--4*--3-3--3--2*-3-3--3--4*-|
A |-3-3--3--4*--3-3--3--2*-3-3--3--4*-|
E |-1-1--1--2*--1-1--1--0*-1-1--1--2*-|
   |--pm--|    |--pm--|   |--pm--|

E |---------------------------------------------------------------------------|
B |---------------------------------------------------------------------------|
G |---------------------------------------------------------------------------|
D |-4-4-4-4-4-4-4-4-4-4-4-4-4-4-4-4-4-4-4-4-4-4-4-4-4-4-4-4-4-4-4-4-4-4-4-4-4-|
A |-4-4-4-4-4-4-4-4-4-4-4-4-4-4-4-4-4-4-4-4-4-4-4-4-4-4-4-4-4-4-4-4-4-4-4-4-4-|
E |-2-2-2-2-2-2-2-2-2-2-2-2-2-2-2-2-2-2-2-2-2-2-2-2-2-2-2-2-2-2-2-2-2-2-2-2-2-|
   |---Play--Fast--Up--And--Down--Strokes--While--Lifting--The--Note--Off----|

Chorus / Outro

E |----------------------------------------------------------------|
B |----------------------------------------------------------------|
G |---------------------------------5--5-5-5-5-5-5-----------------|
D |-7--7-7-7-7-7-7--3--3-3-3-3-3-3--5--5-5-5-5-5-5--5--5-5-5-5-5-5-|
A |-7--7-7-7-7-7-7--3--3-3-3-3-3-3--3--3-3-3-3-3-3--5--5-5-5-5-5-5-|
E |-5--5-5-5-5-5-5--1--1-1-1-1-1-1------------------3--3-3-3-3-3-3-|

E |----------------------------------------------------------------|
B |----------------------------------------------------------------|
G |---------------------------------5--5-5-5-5-5-5-----------------|
D |-7--7-7-7-7-7-7--3--3-3-3-3-3-3--5--5-5-5-5-5-5--5--5-5-5-5-5-5-|
A |-7--7-7-7-7-7-7--3--3-3-3-3-3-3--3--3-3-3-3-3-3--5--5-5-5-5-5-5-|
E |-5--5-5-5-5-5-5--1--1-1-1-1-1-1------------------3--3-3-3-3-3-3-|

E |----------------------------------------------------------------|
B |----------------------------------------------------------------|
G |---------------------------------5--5-5-5-5-5-5-----------------|
D |-7--7-7-7-7-7-7--3--3-3-3-3-3-3--5--5-5-5-5-5-5--5--5-5-5-5-5-5-|
A |-7--7-7-7-7-7-7--3--3-3-3-3-3-3--3--3-3-3-3-3-3--5--5-5-5-5-5-5-|
E |-5--5-5-5-5-5-5--1--1-1-1-1-1-1------------------3--3-3-3-3-3-3-|

E |----------------------------------------------------------------|
B |----------------------------------------------------------------|
G |---------------------------------5--5-5-5-5-5-5-----------------|
D |-7--7-7-7-7-7-7--3--3-3-3-3-3-3--5--5-5-5-5-5-5--5--5-5-5-5-5-5-|
A |-7--7-7-7-7-7-7--3--3-3-3-3-3-3--3--3-3-3-3-3-3--5--5-5-5-5-5-5-|
E |-5--5-5-5-5-5-5--1--1-1-1-1-1-1------------------3--3-3-3-3-3-3-|

E |----------------------------------------------------------------|
B |----------------------------------------------------------------|
G |---------------------------------5--5-5-5-5-5-5-----------------|
D |-7--7-7-7-7-7-7--3--3-3-3-3-3-3--5--5-5-5-5-5-5--5--5-5-5-5-5-5-|
A |-7--7-7-7-7-7-7--3--3-3-3-3-3-3--3--3-3-3-3-3-3--5--5-5-5-5-5-5-|
E |-5--5-5-5-5-5-5--1--1-1-1-1-1-1------------------3--3-3-3-3-3-3-|

E |------------------------------------------------------------------|
B |------------------------------------------------------------------|
G |---------------------------------5--5-5-5-5-5-5-------------------|
D |-7--7-7-7-7-7-7--3--3-3-3-3-3-3--5--5-5-5-5-5-5--5--5-5-5-5-5-5*p-|
A |-7--7-7-7-7-7-7--3--3-3-3-3-3-3--3--3-3-3-3-3-3--5--5-5-5-5-5-5*p-|
E |-5--5-5-5-5-5-5--1--1-1-1-1-1-1------------------3--3-3-3-3-3-3*p-|

Lyrics:

I Wish I Was A Girl
I Wish I Was A Girl (Girl, Girl, Girl, Girl, Girl, Girl)
I Wish I Was A Girl
(Waaargh)

I Wish I Was A Girl So I'd See More Tits
I Wish I Could Jack By Dipping In A Pit
I Only Have A Dick That's Quite Hairy
My Ass Is Too, That's Kinda Scary

I Wish I Was A Girl
I Wish I Was A Girl

I Don't Care About The Blood, I Don't Care About The Pain
Cos Being A Girl's The Only Thing That's On My Brain
Being A Guy Can Be Really Boring
And Cross-Dressing Just Isn't My Thing

I Wish I Was A Girl

Some People Think I Might Be Gay
But I Don't Swing The Other Way
I Just Wanna Be A Girl So Damn Much
To Feel My Clit As It Gets

But If I Was A Girl I Couldn't Drive No More
Cos I Couldn't Tell The Difference Between The Clutch And The Door
I'd Get Moodswings And I'd Have To Shave My Pits
But I Wouldn't Really Care Cos I Would Have Massive Tits
I Wouldn't Have To Put Up With Erections All The Time
I'd Get The Better Job By Performing 69
Cos Being A Girl Would Be So Cool
Cos When You Cum You Don't Leave A Pool

I Wish I Was A Girl

Some People Think I Might Be Gay
But I Don't Swing The Other Way
I Just Wanna Be A Girl So Damn Much
To Feel My Clit As It Gets

Some People Think I Might Be Gay
But I Don't Swing The Other Way
I Just Wanna Be A Girl So Damn Much
To Feel My Clit As It Gets

Mother

Why Wasn't I A Girl
Why Wasn't I A Girl
Why Wasn't I A Girl
Why Wasn't I A Girl
Why Wasn't I A Girl
Why Wasn't I A Girl
Why Wasn't I A Girl
Why Wasn't I A Girl
Why Wasn't I A Girl
Why Wasn't I A Girl
Why Wasn't I A Girl
Why Wasn't I A Girl
Wwhhyy

Some People Think I Might Be Gay
But I Don't Swing The Other Way
I Just Wanna Be A Girl So Damn Much
To Feel My Clit As It Gets

Some People Think I Might Be Gay
But I Don't Swing The Other Way
I Just Wanna Be A Girl So Damn Much
To Feel My Clit As It Gets

Some People Think I Might Be Gay
But I Don't Swing The Other Way
I Just Wanna Be A Girl So Damn Much
To Feel My Clit As It Gets
Comments