Violent Delight - I Wish I Was A Girl Chords & Tabs

 

I Wish I Was A Girl Chords & Tabs

Violent Delight Chords & Tabs

Version: 2 Type: Tab 0 ratings
1 star 2 stars 3 stars 4 stars 5 stars
comments

I Wish I Was A Girl Tab

   
band:Violent delight
Song: I wish I was a girl
Album: Hands up whos got VD
Tabbed By :Kelvin Newman

Tuning D A D G B E   Just tune low E down to D

INTRO: X2

e -----------------------------------------------------------------
B------------------------------------------------------------------
G----7777-----10101010--12121212---14141414------------------------
D----9999-----12121212--14141414---16161616------------------------
A------------------------------------------------------------------
E------------------------------------------------------------------

INTRO 2 X2
e -----------------------------------------------------------------
B------------------------------------------------------------------
G------------------------------------------------------------------
D--7---77--9----3--33--5-------------------------------------------
A- 7---77--7----3--33--5-------------------------------------------
E--7---77-------3--33--5-------------------------------------------

VERSE- MUTED X5
e -----------------------------------------------------------------
B------------------------------------------------------------------
G------------------------------------------------------------------
D--7---77--9----3--33--5-------------------------------------------
A--7---77--7----3--33--5-------------------------------------------
E--7---77-------3--33--5-------------------------------------------
[ Tab from: http://www.guitartabs.cc/tabs/v/violent_delight/i_wish_i_was_a_girl_tab_ver_2.html ]
END OF VERSE
e -----------------------------------------------------------------
B------------------------------------------------------------------
G------------------------------------------------------------------
D-2323232------------9-------9----10-------------------------------
A--------------7 7-----7--7----7-----------------------------------
E------------------------------------------------------------------

CHORUS
e -----------------------------------------------------------------
B------------------------------------------------------------------
G------------------------------------------------------------------
D-777--9999---3333---5555------------------------------------------
A-777--7777---3333---5555------------------------------------------
E-777---------3333---5555------------------------------------------

END OF CHORUS
e -----------------------------------------------------------------
B------------------------------------------------------------------
G------------------------------------------------------------------
D--223---220-------------------------------------------------------
A--223---220-------------------------------------------------------
E--223---220-------------------------------------------------------

BRIDGE- repeat until last chorus
e -----------------------------------------------------------------
B------------------------------------------------------------------
G------------------------------------------------------------------
D-2222---3-----2222--0---------------------------------------------
A-2222---3-----2222--0---------------------------------------------
E-2222---3-----2222--0---------------------------------------------


Thats Pretty Much It, its mostly right I think.
Comments