Violent Delight - I Wish I Was A Girl Chords & Tabs

 

I Wish I Was A Girl Chords & Tabs

Violent Delight Chords & Tabs

Version: 1 Type: Tab 0 ratings
1 star 2 stars 3 stars 4 stars 5 stars
comments

I Wish I Was A Girl Tab

   
Artist / Band - Violent Delight
Album - Hand's Up! If You've Got VD
Track Number - 02
Track Name - I Wish I Was A Girl
Tabber - Keith Fusco
Email Address - keith_fusco_the_offspring_fan@hotmail.com
Web Page - http://koro.20m.com

This is an amazing song by Violent Delight, and I havent seen a tab out for
this yet, so I decided to sit down and tab it out for everyone so that they
could play it. I think it's about 99% correct apart from the interlude bit, 
which when it comes to that part you can just jusp around like a madman and 
play how it says, it's bound to sound something like it. lol. Please email your
comments and any corrections, Or if you think any of the lyrics are wrong, Or
if you want to request A tab email me and i'll try my best to tab it and email
it to you as soon as possible.

Legend:

p - Pull Off
pm - Palm Muted
* - Let Ring
\ - Slide Down Neck
/ - Slide Up neck
< - Pick Scrape Down Neck
> - Pick Scrape Up Neck
^ - Bend

Standard Tuning (E,A,D,G,B,E)

Intro

E |---------------------------------------------------|
B |---------------------------------------------------|
G |-9-9-9-9-/-12-12-12-12-/-11-11-11-11-/-16-16-16-16-|
D |-7-7-7-7-/-10-10-10-10-/--9--9--9--9-/-14-14-14-14-|
A |---------------------------------------------------|
E |---------------------------------------------------|

E |---------------------------------------------------|
B |---------------------------------------------------|
G |-9-9-9-9-/-12-12-12-12-/-11-11-11-11-/-16-16-16-16-|
D |-7-7-7-7-/-10-10-10-10-/--9--9--9--9-/-14-14-14-14-|
A |---------------------------------------------------|
E |---------------------------------------------------|

E |-----------------------------------------------------------------|
B |-----------------------------------------------------------------|
G |-----------------------------------------------------------------|
D |-7-7p-x-7-7-8*-\-3-3p-x-3-3-4*-/-7-7p-x-7-7-8*-\-3-3p-x-3-3-4*-/-|
A |-7-7p-x-7-7-8*-\-3-3p-x-3-3-2*-/-7-7p-x-7-7-8*-\-3-3p-x-3-3-4*-/-|
E |-5-5p-x-5-5-6*-\-1-1p-x-1-1-2*-/-5-5p-x-5-5-6*-\-1-1p-x-1-1-2*-/-|

Verse
[ Tab from: http://www.guitartabs.cc/tabs/v/violent_delight/i_wish_i_was_a_girl_tab.html ]
E |-----------------------------------------------------------------------|
B |-----------------------------------------------------------------------|
G |-----------------------------------------------------------------------|
D |-7-7-7-7-7-7-7-7-\-3-3-3-3-3-3-3-3-/-7-7-7-7-7-7-7-7-\-3-3-3-3-3-3-3-3-|
A |-7-7-7-7-7-7-7-7-\-3-3-3-3-3-3-3-3-/-7-7-7-7-7-7-7-7-\-3-3-3-3-3-3-3-3-|
E |-5-5-5-5-5-5-5-5-\-1-1-1-1-1-1-1-1-/-5-5-5-5-5-5-5-5-\-1-1-1-1-1-1-1-1-|
   |--------------------------------pm-----------------------------------|

E |-----------------------------------------------------------------------|
B |-----------------------------------------------------------------------|
G |-----------------------------------------------------------------------|
D |-7-7-7-7-7-7-7-7-\-3-3-3-3-3-3-3-3-/-7-7-7-7-7-7-7-7-\-3-3-3-3-3-3-3-3-|
A |-7-7-7-7-7-7-7-7-\-3-3-3-3-3-3-3-3-/-7-7-7-7-7-7-7-7-\-3-3-3-3-3-3-3-3-|
E |-5-5-5-5-5-5-5-5-\-1-1-1-1-1-1-1-1-/-5-5-5-5-5-5-5-5-\-1-1-1-1-1-1-1-1-|
   |--------------------------------pm-----------------------------------|

Bridge

E |-----------------------------------------------------------------|
B |-----------------------------------------------------------------|
G |-----------------------------------------------------------------|
D |-7-7p-x-7-7-8*-\-3-3p-x-3-3-4*-/-7-7p-x-7-7-8*-\-3-3p-x-3-3-4*-/-|
A |-7-7p-x-7-7-8*-\-3-3p-x-3-3-2*-/-7-7p-x-7-7-8*-\-3-3p-x-3-3-4*-/-|
E |-5-5p-x-5-5-6*-\-1-1p-x-1-1-2*-/-5-5p-x-5-5-6*-\-1-1p-x-1-1-2*-/-|

Verse

E |----------------------------------------------------------------|
B |----------------------------------------------------------------|
G |----------------------------------------------------------------|
D |-7--7-7--7--0-0--3--3-3--3--0-0--7--7-7--7--0-0--3--3-3--3--0-0-|
A |-7--7-7--7--0-0--3--3-3--3--0-0--7--7-7--7--0-0--3--3-3--3--0-0-|
E |-5--5-5--5--0-0--1--1-1--1--0-0--5--5-5--5--0-0--1--1-1--1--0-0-|
      |pm-|   |pm-|   |pm-|   |pm-|   |pm-|   |pm-|   |pm-|   |pm-|

E |----------------------------------------------------------------|
B |----------------------------------------------------------------|
G |----------------------------------------------------------------|
D |-7--7-7--7--0-0--3--3-3--3--0-0--7--7-7--7--0-0--3--3-3--3--0-0-|
A |-7--7-7--7--0-0--3--3-3--3--0-0--7--7-7--7--0-0--3--3-3--3--0-0-|
E |-5--5-5--5--0-0--1--1-1--1--0-0--5--5-5--5--0-0--1--1-1--1--0-0-|
      |pm-|   |pm-|   |pm-|   |pm-|   |pm-|   |pm-|   |pm-|   |pm-|

Bridge

e |--------------------------------|
B |--------------------------------|
G |--------------------------------|
D |---------9---------9---10-------|
A |-7-7p--7---7-7p--7---7----------|
E |--------------------------
Comments