Vio-lence - Calling In The Coroner Chords & Tabs

 

Calling In The Coroner Chords & Tabs

Vio-lence Chords & Tabs

Version: 1 Type: Tab

Calling In The Coroner Tab

   
Band:  Vio-lence
Album: Eternal Nightmare
Song:  Calling In The Coroner

Copyright (c)  Mechanic (1988)
Version 1.0 - 12/8/06

Transcribed By: Ryan
Email:          ryanhidrio@hotmail.com


.  - palm mute           /  - slide up to
\  - slide down to       ~  - vibrato
h  - hammer on           b  - Bend
p  - pull off            Suffixes for bend
t  - tap                 f  - full bend    h - half bend
ph - pinched harmonic    q  - quarter bend t - tap bend
*  - see comment         ^  - Hold bend    r release bend
x  - Staccato            ~  - vibrato bend
,  - slight palm mute    () - ghost note, sustained note
"  - tremolo note        tr - Trill

Tuning E A D G B E


Riff 1
||-----------------------------------------------------------------|
||-----------------------------------------------------------------|
||-----------------------------------------------------------------|
||---------------------------0-4-----------------------------3-----|
||-4---4---4---4---4---4---4-0-2---4---4---4---4---4-3-2-3-4-1-5---|
||-2-0-2-0-2-0-2-0-2-0-2-0-2-------2-0-2-0-2-0-2-0-2-1-0-1-2---3---|
   . . . . . . . . . . . . .       . . . . . . . . . . . . .


 |-----------------------------------------------------------------||
 |-----------------------------------------------------------------||
 |-----------------------------------------------------------------||
 |---------------------------0-4-----------------------------7-5---||
 |-4---4---4---4---4---4---4-0-2---4---4---4---4---4-3-2-3-4-5-3---||
 |-2-0-2-0-2-0-2-0-2-0-2-0-2-------2-0-2-0-2-0-2-0-2-1-0-1-2-------||  x2
   . . . . . . . . . . . . .       . . . . . . . . . . . . .


Fill                      phphphph
|-----------------------------------------|
|-----------------------------------------|
|---3-2-0---3-2-0---3-2-0---3-2-0---------|
|-4-------4-------4-------4---------3-2---|
|---------------------------------4-1-0-5-|
|---------------------------------2-----3-|  x1
  . . . . . . . . . . . .



Riff 1      x1



Riff 2
|-----------------------------------------------------------------|
|-----------------------------------------------------------------|
|---------------------------2---3---------------------------------|
|-4-2-4---------5---2---4---2---3-4-2-4-----------------3---5---7-|
|-4-2-4---------5---2---4---------4-2-4-----------------1---3---5-|
|-------2-2-2-2---2---2---2-------------2-2-2-2-2-2-2-2-----------|
        . . . .   .   .   .             . . . . . . . .

|-----------------------------------------------------------------|
|-----------------------------------------------------------------|
|---------------------------2---3---------------------------------|
|-4-2-4---------5---2---4---2---3-4-2-4-----------------7---5---3-|
|-4-2-4---------5---2---4---------4-2-4-----------------5---3---1-|
|-------2-2-2-2---2---2---2-------------2-2-2-2-2-2-2-2-----------|  x2
        . . . .   .   .   .             . . . . . . . .



Riff 1      x1
Riff 2      x2



Riff 3

<----BASS----->
                |-----| |----------------------------------|
                |-----| |----------------------------------|
|-------------| |-----| |----------------------------------|
|-------------| |-4/5-| |-------------6-5-----5-4----------|(first 2 parts played
|-------------| |-2/3-| |-4---4-5-4---4-3-----3-2---111111-| first time only)
|-2-4-5-2-4-5-| |-----| |-2-0-2-3-2-0-------0--------------|  x4 
                            .       .       .       ......
           


Fill      phphphph
|-------------------------|
|-------------------------|
|---3-2-0---3-2-0---------|
|-4-------4---------3-2---|
|-----------------4-1-0-5-|
|-----------------2-----3-|  x1
  . . . .



Riff 1      x1 (at the end 8 harmonics played over the 3rd to 4th frets)
Riff 2      x2
Riff 3      x4


[ Tab from: http://www.guitartabs.cc/tabs/v/vio-lence/calling_in_the_coroner_tab.html ]
Riff 4a           (Guitar 2 in brackets played 2nd & 3rd times.)
|-----------------------------------------------------------------|
|-----------------------------------------------------------------|
|-----------------------------------------------2-4-2-5-2-4-2-8)--|
|--------------------------------------------(4-0-2-0-3-0-2-0-6---|
|-2---2---3---2-----------5---6---2---2---3---2-------------------|
|-0---0---1---0---0-0-0-0-3---4---0---0---1-----------------------|  x3
                  . . . .                     . . . . . . . . 

|-----------------------------------------------------------------|
|-----------------------------------------------------------------|
|-----------------------------------------------------------------|
|-----------------------------------------------------------------|
|-2---2---3---2-----------5---6---2---2---3---2-------------------|
|-0---0---1---0---0-0-0-0-3---4---0---0---1---0---0\\\\\\\\\\////-|  x1
                  . . . .


Riff 4b (Under solo)
||-----------------------------------------------------------------|
||-----------------------------------------------------------------|
||-----------------------------------------------------------------|
||-----------------------------------------------0-2-0-3-0-2-0-6---|
||-2---2---3---2-----------5---6---2---2---3---2-------------------|
||-0---0---1---0---0---0---3---4---0---0---1-----------------------|  
                   .   .                       . . . . . . . . 

 |-----------------------------------------------------------------|
 |-----------------------------------------------------------------|
 |-----------------------------------------------------------------|
 |-----------------------------------------------0-2-0-3-0-2-0-6---|
 |-2---2---3---2-----------5---6---2---2---3---2-------------------|
 |-0---0---1---0---0-0-0-0-3---4---0---0---1-----------------------|  
                   . . . .                     . . . . . . . .

 |-----------------------------------------------------------------|
 |-----------------------------------------------------------------|
 |-----------------------------------------------------------------|
 |-----------------------------------------------0-2-0-3-0-2-0-6---|
 |-2---2---3---2-----------5---6---2---2---3---2-------------------|
 |-0---0---1---0---0---0---3---4---0---0---1-----------------------|  
                   .   .                       . . . . . . . . 

 |-----------------------------------------------------------------||
 |-----------------------------------------------------------------||
 |-----------------------------------------------------------------||
 |-----------------------------------------------------------------||
 |-2---2---3---2-----------5---6---2---2---3---2---2---------------||
 |-0---0---1---0---0-0-0-0-3---4---0---0---1---0---0---------------||  x1
                   . . . .                     


Riff 5
|-----------------------------------------------------------------|
|-----------------------------------------------------------------|
|-----------------------------------------------------------------|
|---------3-----3---------7---------------3-----3---------7-------|
|---------1-----1---------5---5\4---------1-----1---------5---5\4-|
|-0-2-3-0---2-3---0-2-3-0---0-3\2-0-2-3-0---2-3---0-2-3-0---0-3\2-|  x3
  . . . .   . .   . . . .   .     . . . .   . .   . . . .   .

|-----------------------------------------------------------------|
|-----------------------------------------------------------------|
|-----------------------------------------------------------------|
|---------3-----3---------7---------------3-----5-------7---7-7---|
|---------1-----1---------5---5\4---------1-----3-------5---5-5---|
|-0-2-3-0---2-3---0-2-3-0---0-3\2-0-2-3-0---2-3-----3-0-----------|  x1
  . . . .   . .   . . . .   .     . . . .   . .     . .


Riff 3
|----------------------------------|
|----------------------------------|
|----------------------------------|
|-------------6-5-----5-4----------|
|-4---4-5-4---4-3-----3-2---111111-|
|-2-0-2-3-2-0-------0--------------|  x 13 (fade out from 11th time)
    .       .       .       ......


END